It'll-all-be-gone

(/) Slide Up  (\) Slide Down  (h) Hammer On  (p) Pull Off  (b) Bend (r) Release (v) Vibrato
E|--------------|-----------------|--
B|--------------|-----------------|--
G|-----------7--|--------------7--|--
D|--7--7--4--7--|--7--7--4--5--7--|--
A|--7--7--4--5--|--7--7--------5--|--
E|--5--4--2-----|--5--4--2--3-----|--



E|-------|-------|-------|-------|-------|-------|-------------|-
B|-------|-------|-------|-------|-------|-------|-------------|-
G|-7-7-7-|-------|-------|-------|-7-7-7-|-------|-------------|-
D|-7-7-7-|-7-7-7-|-9-9-9-|-5-5-5-|-7-7-7-|-7-7-7-|-9-9-7-7-5-5-|-
A|-5-5-5-|-7-7-7-|-9-9-9-|-5-5-5-|-5-5-5-|-7-7-7-|-9-9-7-7-5-5-|-
E|-------|-5-5-5-|-7-7-7-|-3-3-3-|-------|-5-5-5-|-7-7-5-5-3-3-|-



E|-----------|-----------|-----------|-----------|-----------|-----------|---------------------|-
B|-----------|-----------|-----------|-----------|-----------|-----------|---------------------|-
G|-7-7-7-7-7-|-----------|-----------|-----------|-7-7-7-7-7-|-----------|---------------------|-
D|-7-7-7-7-7-|-7-7-7-7-7-|-9-9-9-9-9-|-5-5-5-5-5-|-7-7-7-7-7-|-7-7-7-7-7-|-9-9-7-7-5-5-5-5-5-5-|-
A|-5-5-5-5-5-|-7-7-7-7-7-|-9-9-9-9-9-|-5-5-5-5-5-|-5-5-5-5-5-|-7-7-7-7-7-|-9-9-7-7-5-5-5-5-5-5-|-
E|-----------|-5-5-5-5-5-|-7-7-7-7-7-|-3-3-3-3-3-|-----------|-5-5-5-5-5-|-7-7-5-5-3-3-3-3-3-3-|-



E|-----------|-----------|-----------|---------|-----------|-----------|---------------|-
B|-----------|-----------|-----------|---------|-----------|-----------|---------------|-
G|-7-7-7-7-7-|-----------|-----------|---------|-7-7-7-7-7-|-----------|---------------|-
D|-7-7-7-7-7-|-7-7-7-7-7-|-9-9-9-9-9-|-5-5-5-5-|-7-7-7-7-7-|-7-7-7-7-7-|-9-9-7-7-9-7-5-|-
A|-5-5-5-5-5-|-7-7-7-7-7-|-9-9-9-9-9-|-5-5-5-5-|-5-5-5-5-5-|-7-7-7-7-7-|---------------|-
E|-----------|-5-5-5-5-5-|-7-7-7-7-7-|-3-3-3-3-|-----------|-5-5-5-5-5-|-7-7-5-5-7-5-3-|-



E|---------------------------
B|---------------------------
G|--14--14--14-----11-----9--
D|---------------------------
A|--12--12--12--9------7-----
E|---------------------------



E|-------------------------|-------------------------|-------------------------|------------------|-
B|-------------------------|-------------------------|-------------------------|------------------|-
G|-14-14-14-11-9-9-9-9-9-9-|-11-11-11-12-11-9-7-14-7-|-14-14-14-11-9-9-9-9-9-9-|-11-11-9-9-11-9-7-|-
D|-------------------------|-------------------------|-------------------------|------------------|-
A|-12-12-12-9--7-7-7-7-7-7-|-9--9--9--10-9--7-5-12-5-|-12-12-12-9--7-7-7-7-7-7-|-9--9--7-7-9--7-5-|-
E|-------------------------|-------------------------|-------------------------|------------------|-



E|---------------|---------------|---------------|---------------|-
B|---------------|---------------|---------------|---------------|-
G|---------------|---------------|-7-7-7-7-7-7-7-|---------------|-
D|-9-9-9-9-9-9-9-|-5-5-5-5-5-5-5-|-7-7-7-7-7-7-7-|-7-7-7-7-7-7-7-|-
A|-9-9-9-9-9-9-9-|-5-5-5-5-5-5-5-|-5-5-5-5-5-5-5-|-7-7-7-7-7-7-7-|-
E|-7-7-7-7-7-7-7-|-3-3-3-3-3-3-3-|---------------|-5-5-5-5-5-5-5-|-



E|---------------|-----------------|---------------|-----------------|-
B|---------------|-----------------|---------------|-----------------|-
G|---------------|-----------------|-7-7-7-7-7-7-7-|-----------------|-
D|-9-9-9-9-9-9-9-|-5-5-5-5-5-5-5-5-|-7-7-7-7-7-7-7-|-7-7-7-7-7-7-7-7-|-
A|-9-9-9-9-9-9-9-|-5-5-5-5-5-5-5-5-|-5-5-5-5-5-5-5-|-7-7-7-7-7-7-7-7-|-
E|-7-7-7-7-7-7-7-|-3-3-3-3-3-3-3-3-|---------------|-5-5-5-5-5-5-5-5-|-



E|---|-----5-----5-|-----5-----5-|-5-3-2---5-3-2---|-5-3-2---5-3-2---|-
B|---|-2-3---2-3---|-2-3---2-3---|-------3-------3-|-------3-------3-|-
G|---|-------------|-------------|-----------------|-----------------|-
D|-9-|-------------|-------------|-----------------|-----------------|-
A|-9-|-------------|-------------|-----------------|-----------------|-
E|-7-|-------------|-------------|-----------------|-----------------|-



E|-----|-----|-
B|-----|-----|-
G|-----|-----|-
D|-5-5-|-7-7-|-
A|-5-5-|-7-7-|-
E|-3-3-|-5-5-|-



E|---
B|-5-
G|---
D|---
A|---
E|---



E|-----------|-----------|-----------|-----------|-
B|-----------|-----------|-----------|-----------|-
G|-7-7-7-7-7-|-7-7-7-7-7-|-----------|-----------|-
D|-7-7-7-7-7-|-7-7-7-7-7-|-4-4-4-4-4-|-5-5-5-5-5-|-
A|-5-5-5-5-5-|-4-4-4-4-4-|-----------|-5-5-5-5-5-|-
E|-----------|-----------|-2-2-2-2-2-|-3-3-3-3-3-|-



E|-----------|-----------|-----------|-----------|-
B|-----------|-----------|-----------|-----------|-
G|-7-7-7-7-7-|-----------|-----------|-7-7-7-7-7-|-
D|-7-7-7-7-7-|-2-2-2-2-2-|-4-4-4-4-4-|-7-7-7-7-7-|-
A|-5-5-5-5-5-|-2-2-2-2-2-|-4-4-4-4-4-|-5-5-5-5-5-|-
E|-----------|-0-0-0-0-0-|-2-2-2-2-2-|-----------|-



E|-----------|-----------|---------------|-
B|-----------|-----------|---------------|-
G|-7-7-7-7-7-|-7-7-7-7-7-|---------------|-
D|-7-7-7-7-7-|-7-7-7-7-7-|-9-9-7-7-9-7-5-|-
A|-5-5-5-5-5-|-4-4-4-4-4-|---------------|-
E|-----------|-----------|-7-7-5-5-7-5-3-|-



E|-------------|------------
B|-------------|------------
G|-14-14-14-11-|-9-9-11-9-7-
D|-------------|------------
A|-12-12-12-9--|-7-7-9--7-5-
E|-------------|------------



E|---------|---------|---------|---------|-
B|---------|---------|---------|---------|-
G|-7-7-7-7-|-9-9-9-9-|-6-6-6-6-|-7-7-7-7-|-
D|---------|---------|---------|---------|-
A|-5-5-5-5-|-7-7-7-7-|-4-4-4-4-|-5-5-5-5-|-
E|---------|---------|---------|---------|-



E|-------------|------------------|-
B|-------------|------------------|-
G|-14-14-14-11-|-11-11-9-9-11-9-7-|-
D|-------------|------------------|-
A|-12-12-12-9--|-9--9--7-7-9--7-5-|-
E|-------------|------------------|-



E|-----|-----
B|-----|-----
G|-----|-----
D|-----|-----
A|-----|-----
E|-----|-----



E|---------------|---------------|-----------------------------|-
B|---------------|---------------|-----------------------------|-
G|---------------|---------------|-----------------------------|-
D|-9-9-9-9-9-9-9-|-7-7-7-7-7-7-7-|-5-5-5-5-5-5-5-5-5-5-5-5-5-5-|-
A|-9-9-9-9-9-9-9-|-7-7-7-7-7-7-7-|-5-5-5-5-5-5-5-5-5-5-5-5-5-5-|-
E|-7-7-7-7-7-7-7-|-5-5-5-5-5-5-5-|-3-3-3-3-3-3-3-3-3-3-3-3-3-3-|-



E|-------------|-----------------------------------|-
B|-------------|-----------------------------------|-
G|-------------|-----------------------------------|-
D|-9-9-9-9-9-9-|-7-9-7-5-5-5-5-5-5-5-5-5-5-5-5-5-5-|-
A|-9-9-9-9-9-9-|-7-------5-5-5-5-5-5-5-5-5-5-5-5-5-|-
E|-7-7-7-7-7-7-|-5-7-5-3-3-3-3-3-3-3-3-3-3-3-3-3-3-|-



E|---------------|---------------|-
B|---------------|---------------|-
G|---------------|---------------|-
D|-9-9-9-9-9-9-9-|-7-7-7-7-7-7-7-|-
A|-9-9-9-9-9-9-9-|-7-7-7-7-7-7-7-|-
E|-7-7-7-7-7-7-7-|-5-5-5-5-5-5-5-|-



E|---|-----------------|-----------------|-----------------|-
B|---|-----------------|-------------2-3-|-----------------|-
G|---|-2---2---2---2---|-2---2---2-------|-2---2---2---2---|-
D|-9-|---0---0---0---0-|---0---0---0-----|---0---0---0---0-|-
A|-9-|-----------------|-----------------|-----------------|-
E|-7-|-----------------|-----------------|-----------------|-



E|-----------|--------------|--
B|-----------|--------------|--
G|-----------|--------------|--
D|--5--5--5--|--7--7--7--7--|--
A|--5--5--5--|--7--7--7--7--|--
E|--3--3--3--|--5--5--5--5--|--



E|-----------------
B|-----------------
G|-----------------
D|-----------------
A|-----------------
E|-----------------
http://www.guitartabcreator.com
Guitar Tab Creator is intended to store guitar tab created through the tool. It currently does not support in-line text editing. Any text you place in here will be lost. If you need to comment on your tab, please use the "Tab Notes" section located below.