Hopeless Romance

(/) Slide Up  (\) Slide Down  (h) Hammer On  (p) Pull Off  (b) Bend (r) Release (v) Vibrato

E|---------|-
B|---------|-
G|-7-7-7-7-|-
D|---------|-
A|-5-5-5-5-|-
E|---------|-



E|-------------------|-
B|-------------------|-
G|-11-11-12-11-9-7-9-|-
D|-------------------|-
A|-9--9--10-9--7-5-7-|-
E|-------------------|-



E|-------|-------|-----|-
B|-------|-------|-----|-
G|-------|-------|-----|-
D|-0-0-0-|-4-4-4-|-5-7-|-
A|-0-0-0-|-4-4-4-|-5-7-|-
E|-0-0-0-|-4-4-4-|-5-7-|-



E|-------|-------|-
B|-------|-------|-
G|-------|-------|-
D|-0-0-0-|-9-5-7-|-
A|-0-0-0-|-9-5-7-|-
E|-0-0-0-|-9-5-7-|-



E|---------|---------|---------|---------|-
B|---------|---------|---------|---------|-
G|---------|---------|---------|---------|-
D|-9-5-0-7-|-9-5-7-0-|-9-5-0-7-|-9-5-7-7-|-
A|-9-5-0-7-|-9-5-7-0-|-9-5-0-7-|-9-5-7-7-|-
E|-9-5-0-7-|-9-5-7-0-|-9-5-0-7-|-9-5-7-7-|-



E|-17-15-14-15-14-------|---|-17-15-14-15-14-------|-17-15-14-15-14-14-|-
B|----------------15-15-|---|----------------15-15-|-------------------|-
G|----------------------|---|----------------------|-------------------|-
D|----------------------|-0-|----------------------|-------------------|-
A|----------------------|-0-|----------------------|-------------------|-
E|----------------------|-0-|----------------------|-------------------|-



E|-------------|-
B|-------------|-
G|-------------|-
D|-0-4-5-9-5-7-|-
A|-0-4-5-9-5-7-|-
E|-0-4-5-9-5-7-|-



E|----------------------|-
B|----------------------|-
G|-7-6-7-11-12-11-9-7-9-|-
D|----------------------|-
A|-5-4-5-9--10-9--7-5-7-|-
E|----------------------|-



E|-------|-
B|-------|-
G|-7---7-|-
D|---7---|-
A|-5-----|-
E|-------|-



E|-------------|-------------------------|-------------------------------------------------|--------------|-
B|-------------|-------------------------|-------------------------------------------------|--------------|-
G|-------------|-------------------------|-------------------------------------------------|-11-12-11-9-7-|-
D|-----7-7-5-4-|-----7-7-5-4-----7-7-5-4-|-----7-7-5-4-----7-7-5-4-----7-7-5-4-----7-7-5-4-|--------------|-
A|-------------|-------------------------|-------------------------------------------------|-9--10-9--7-5-|-
E|-0-0---------|-7-7---------5-5---------|-9-9---------7-7---------5-5---------0-0---------|--------------|-



E|-------|-----------------------|-----|-
B|-------|-----------------------|-----|-
G|-------|-----------------------|-----|-
D|-0-7-5-|-9-9-9-7-7-7-5-5-5-0-0-|-4-5-|-
A|-0-7-5-|-9-9-9-7-7-7-5-5-5-0-0-|-4-5-|-
E|-0-7-5-|-9-9-9-7-7-7-5-5-5-0-0-|-4-5-|-



E|-------|-
B|-------|-
G|-------|-
D|-0-4-5-|-
A|-0-4-5-|-
E|-0-4-5-|-
http://www.guitartabcreator.com
Guitar Tab Creator is intended to store guitar tab created through the tool. It currently does not support in-line text editing. Any text you place in here will be lost. If you need to comment on your tab, please use the "Tab Notes" section located below.