Hearts of Gold

(/) Slide Up  (\) Slide Down  (h) Hammer On  (p) Pull Off  (b) Bend (r) Release (v) Vibrato
E|-0-----0-----0---|-0-----0-----0---|-0-----0-----0---|-0-----0-----0---|-
B|---0-----0-----0-|---0-----0-----0-|---0-----0-----0-|---0-----0-----0-|-
G|-----6-----6-----|-----2-----2-----|-----9-----9-----|-----4-----4-----|-
D|-----------------|-----------------|-----------------|-----------------|-
A|-----------------|-----------------|-----------------|-----------------|-
E|-----------------|-----------------|-----------------|-----------------|-



E|-4-----4-----4---|-0-----0-----0---|-7-----7-----7---|-2-|-----|-
B|---0-----0-----0-|---0-----0-----0-|---0-----0-----0-|-0-|-----|-
G|-----6-----6-----|-----2-----2-----|-----9-----9-----|-4-|-2-4-|-
D|-----------------|-----------------|-----------------|---|-2-4-|-
A|-----------------|-----------------|-----------------|---|-0-2-|-
E|-----------------|-----------------|-----------------|---|-----|-



E|-12-11-|---------|-----|-
B|-12-12-|---------|-----|-
G|-------|-6-2---4-|-2-4-|-
D|-------|-6-2-2-4-|-2-4-|-
A|-------|-4-0-2-2-|-0-2-|-
E|-------|-----0---|-----|-



E|-----------------------|-----------------|-
B|-4-5-4---4-5-4---4-5---|-7-5-4-5-9-7-5-4-|-
G|-------6-------6-----6-|-----------------|-
D|-----------------------|-----------------|-
A|-----------------------|-----------------|-
E|-----------------------|-----------------|-



E|-----------------------------|--------------|------------------------|----
B|-----------------------------|--------------|------------------------|----
G|----6-------------------4----|----6---------|-------------------4----|----
D|----6----6----7----2----4----|----6---------|----6----7----2----4----|----
A|----4----6----7----2----2----|----4----4----|----6----7----2----2----|----
E|---------4----5----0---------|--------------|----4----5----0---------|----



E|-----------------------|-------|-
B|-----------------------|-------|-
G|-6-6-6-6-6-6-6-6-6-6-6-|-2---4-|-
D|-6-6-6-6-6-6-6-6-6-6-6-|-2-2-4-|-
A|-4-4-4-4-4-4-4-4-4-4-4-|-0-2-2-|-
E|-----------------------|---0---|-



E|-----------------------------------------------------------------------------------------|-
B|-----------------------------------------------------------------------------------------|-
G|-----------------------------------------------------------------------------------------|-
D|-9-9-9-9-9-9-9-9-9-9-9-4-4-4-4-4-6-6-6-4-4-4-2-2-2-2-2-2-2-2-2-2-2-4-4-4-4-4-1-1-1-1-1-1-|-
A|-----------------------------------------------------------------------------------------|-
E|-----------------------------------------------------------------------------------------|-



E|---------|-
B|---------|-
G|---------|-
D|-9-6-7-6-|-
A|---------|-
E|---------|-



E|-----------------------------|-------------------|----
B|-----------------------------|-------------------|----
G|----2----4---------4----2----|----2----4----5----|----
D|----2----4----2----4----2----|----2----4----5----|----
A|----0----2----2----2----0----|----0----2----3----|----
E|--------------0--------------|-------------------|----



E|--------7--------7--------7--------7--------7--|--7--------7-----------|--
B|-----5--------5--------5--------5--------5-----|-----5--------5--------|--
G|--6--------8-----------------4-----------------|--------6--------8--9--|--
D|--------------------6--------------------------|-----------------------|--
A|--------------------------------------7--------|-----------------------|--
E|-----------------------------------------------|-----------------------|--



E|----------------------------------|-------------------|----
B|----------------------------------|-------------------|----
G|----6-------------------4----2----|----6----4----2----|----
D|----6----6----7----2----4----2----|----6----4----2----|----
A|----4----6----7----2----2----0----|----4----2----0----|----
E|---------4----5----0--------------|-------------------|----



E|-----------------------------------------------------------------------------|-
B|------9--------9--------10--------10-------12-------12--------10--------10---|-
G|----9---9----9---9----9----9----9----9---9----9-------------9----9----9----9-|-
D|-11------------------------------------9----------9----9---------------------|-
A|----------11-------12--------12-----------------9--------12--------12--------|-
E|-----------------------------------------------------------------------------|-



E|--5--4--0--5--4--0--5--4--0--5--4--0--------------------------------------0--|--
B|--------------------------------------7--5--0--7--5--0--7--5--0--7--5--0--5--|--
G|-----------------------------------------------------------------------------|--
D|-----------------------------------------------------------------------------|--
A|-----------------------------------------------------------------------------|--
E|-----------------------------------------------------------------------------|--



E|--------------------------0-----|--
B|--------------------------0-----|--
G|--6--6--------------------1--8--|--
D|--6--6--6--6--7--7--6--6--2--8--|--
A|--4--4--6--6--7--7--6--6--2--6--|--
E|--------4--4--5--5--4--4--0-----|--



E|------------------------------|----
B|------------------------------|----
G|----9----11----8----9----8----|----
D|------------------------------|----
A|----7----9-----6----7----6----|----
E|------------------------------|----



E|---------------------------------------------|-
B|---------------------------------------------|-
G|---------5-4---------5-4-7---------5-4-------|-
D|-2-2-2-2-5-4-2-2-2-2-5-4-7-2-2-2-2-5-4-2-2-2-|-
A|-2-2-2-2-3-2-2-2-2-2-3-2-5-2-2-2-2-3-2-2-2-2-|-
E|-0-0-0-0-----0-0-0-0-------0-0-0-0-----0-0-0-|-



E|--------------|-------------------|--------------|----
B|--------------|-------------------|--------------|----
G|----5----4----|----5----4----7----|----5----4----|----
D|----5----4----|----5----4----7----|----5----4----|----
A|----3----2----|----3----2----5----|----3----2----|----
E|--------------|-------------------|--------------|----



E|-----------------------|--------|--
B|-----------------------|--------|--
G|-----5--4--7--5--4--5--|--5--7--|--
D|--2--5--4--7--5--4--5--|--5--7--|--
A|--2--3--2--5--3--2--3--|--3--5--|--
E|--0--------------------|--------|--



E|-------------------------------------|--
B|-------------------------------------|--
G|--9--12--11--14--12--11--12--14--11--|--
D|-------------------------------------|--
A|--7--10--9---12--10--9---10--12--9---|--
E|-------------------------------------|--



E|------------------------------------------------------------------|-
B|------9--------9--------10--------10-------12-------12-------10---|-
G|----9---9----9---9----9----9----9----9---9----9---9----9---9----9-|-
D|-11------------------------------------9-----------------7--------|-
A|----------11-------12--------12-----------------9-----------------|-
E|------------------------------------------------------------------|-
http://www.guitartabcreator.com
Guitar Tab Creator is intended to store guitar tab created through the tool. It currently does not support in-line text editing. Any text you place in here will be lost. If you need to comment on your tab, please use the "Tab Notes" section located below.