Breaking News

(/) Slide Up  (\) Slide Down  (h) Hammer On  (p) Pull Off  (b) Bend (r) Release (v) Vibrato
E|--------------|--------------------------------------------------|--
B|--------------|--------------------------------------------------|--
G|----------13--|----------13----------13----------13----------13--|--
D|------15------|------15----------15----------15----------15------|--
A|--13----------|--11----------------------------------11----------|--
E|--------------|--------------11----------14----------------------|--



E|------------------------------------|----
B|------------------------------------|----
G|-------------------8----11----13----|----
D|----7----8----6----8----11----13----|----
A|---------8----6----6----9-----11----|----
E|----5----6----4---------------------|----



E|---------------------------|--------------------------------------|--
B|---------------------------|--------------------------------------|--
G|--------------10--8--6--8--|--------------8--6--8--6--6--5--5--3--|--
D|--6--8--8--8---------------|--6--8--8--8--------------------------|--
A|---------------------------|--------------------------------------|--
E|---------------------------|--------------------------------------|--



E|--------|--------------|--------------|--
B|--------|--------------|--------------|--
G|--------|-----6-----8--|--------------|--
D|--8--8--|--8--6--6--8--|--------------|--
A|--8--8--|--8--4--6--6--|--------------|--
E|--6--6--|--6-----4-----|--8--8--8--8--|--



E|---------------------|--------------|--
B|---------------------|--------------|--
G|-----6-----8--10--8--|--------------|--
D|--8--6--6--8--10--8--|--------------|--
A|--8--4--6--6--8---6--|--------------|--
E|--6-----4------------|--8--8--8--8--|--



E|-----------------------|--------------|--------------|--
B|-----------------------|--------------|--------------|--
G|-----------8--6--5--6--|-----------6--|--------------|--
D|--4--6--8--8--6--5--6--|--4--6--8--6--|--4--6--------|--
A|--4--6--8--6--4--3--4--|--4--6--8--4--|--4--6--------|--
E|--2--4--6--------------|--2--4--6-----|--2--4--4--5--|--



E|----------|--------------|----------|----------------|--
B|----------|--------------|----------|----------------|--
G|--10--11--|--6--8--5--6--|--10--11--|--6--8--10--11--|--
D|----------|--------------|----------|----------------|--
A|--8---9---|--4--6--3--4--|--8---9---|--4--6--8---9---|--
E|----------|--------------|----------|----------------|--



E|------------------|--------------|--
B|------------------|--------------|--
G|--13--11--10--11--|--18--17--15--|--
D|------------------|--------------|--
A|--11--9---8---9---|--16--15--13--|--
E|------------------|--------------|--



E|---------------------------|---------6-9-6-------------------------------|------------------------------|---
B|-6-9-6-----------6---------|-------6-------9-----------------------------|------------------------------|---
G|-8-----8-6-8-6-8-8-6-8-6---|---6-8-8---------6-8-------------------------|---------------------10-8-6-8-|---
D|-------------------------8-|-8-------------------8-6-8-8-6-8-6-8-6-6-----|-----6-8-6-8-8-8-8-8----------|---
A|---------------------------|---------------------------------------------|-6-8--------------------------|---
E|---------------------------|-----------------------------------------0-4-|------------------------------|---



E|-------------------------------------------------------------------------------------|-
B|-------------------------------------------------------------------------------------|-
G|-------13-------13-13-13-11-10-11-10-11-------13-------13-13-13-11-11-10-10-11-10----|-
D|-10-11----10-11-------------------------10-11----10-11----------------------------11-|-
A|-------------------------------------------------------------------------------------|-
E|-------------------------------------------------------------------------------------|-



E|-----------|-----------|--------------------|--
B|-----------|-----------|--------------------|--
G|-----5--6--|-----6--5--|--------------------|--
D|--8--5--6--|--8--6--5--|--8--8--6--6--4--4--|--
A|--8--3--4--|--8--4--3--|--8--8--6--6--4--4--|--
E|--6--------|--6--------|--6--6--4--4--2--2--|--



E|--------------|-----------------|--
B|--------------|-----------------|--
G|-----------6--|-----------------|--
D|--4--6--8--6--|--4--4--6--6--8--|--
A|--4--6--8--4--|--4--4--6--6--8--|--
E|--2--4--6-----|--2--2--4--4--6--|--



E|--------------------------|--
B|--------------------------|--
G|--13------11------10------|--
D|------11------11------11--|--
A|--------------------------|--
E|--------------------------|--
http://www.guitartabcreator.com
Guitar Tab Creator is intended to store guitar tab created through the tool. It currently does not support in-line text editing. Any text you place in here will be lost. If you need to comment on your tab, please use the "Tab Notes" section located below.