Breaching the Border - New Year

(/) Slide Up  (\) Slide Down  (h) Hammer On  (p) Pull Off  (b) Bend (r) Release (v) Vibrato

E|--------------------------------------------------|--
B|--------------------------------------------------|--
G|--------6-----------6-----------6-----------6-----|--
D|-----7-----7-----7-----7-----7-----7-----7-----7--|--
A|--------------------------5-----------7-----------|--
E|--5-----------5-----------------------------------|--



E|---------------------------------|-------------------------------|-
B|---------------------------------|-------------------------------|-
G|-----9-------9-------7-------7---|-----9-------9-------6---7-----|-
D|---7---7---7---7---7---7---7---7-|---7---7---7---7---6-------7---|-
A|-9-------7-------5-------5-------|-9-------7-------4-----5-----5-|-
E|---------------------------------|-------------------------------|-



E|---------------------------------|-------------|-
B|---------------------------------|-------------|-
G|-----9-------9-------7-------7---|-----9-------|-
D|---7---7---7---7---7---7---7---7-|---7---7---7-|-
A|-9-------7-------5-------5-------|-9-------7---|-
E|---------------------------------|-------------|-



E|-------------------|----
B|--------------3----|----
G|----2---------2----|----
D|----2----4----0----|----
A|----0----4----0----|----
E|---------2---------|----



E|---------------------------------|-
B|-3-2---5-3-2-3-2---5-3-2-3-2-----|-
G|-----2-----------2-----------1-2-|-
D|---------------------------------|-
A|---------------------------------|-
E|---------------------------------|-



E|-------------------|----
B|--------------3----|----
G|--------------2----|----
D|----4----2----0----|----
A|----4----2----0----|----
E|----2----0---------|----



E|---------------------------------|---------------------------------|---------------------------------|-|-
B|-5---5---3---3---2---2---3---3---|-5---5---3---3---2---2---2---2---|-5---5---3---3---2---2---3---3---|-|-
G|---2---2---2---2---2---2---2---2-|---2---2---2---2---2---2---2---2-|---2---2---2---2---2---2---2---2-|-|-
D|---------------------------------|---------------------------------|---------------------------------|-|-
A|---------------------------------|---------------------------------|---------------------------------|-|-
E|---------------------------------|---------------------------------|---------------------------------|-|-



E|-------------------------|-----------|-----------------|-
B|-2-3-5-2-3-2-3-2-5-3-2---|-2-2-2-3-5-|-2-2-2-3---------|-
G|-----------------------2-|-2-2-2-2-2-|-2-2-2-2-2-2-2-2-|-
D|-------------------------|-----------|-----------------|-
A|-------------------------|-----------|-----------------|-
E|-------------------------|-----------|-----------------|-



E|-
B|-
G|-
D|-
A|-
E|-
http://www.guitartabcreator.com
Guitar Tab Creator is intended to store guitar tab created through the tool. It currently does not support in-line text editing. Any text you place in here will be lost. If you need to comment on your tab, please use the "Tab Notes" section located below.