Superman FFF

(/) Slide Up  (\) Slide Down  (h) Hammer On  (p) Pull Off  (b) Bend (r) Release (v) Vibrato


E|-----------------|--------------------|-----------------|-----------------------|--
B|-----1--1--3--3--|-----3--3--3--1--1--|-----1--1--3--3--|--------3-----3--1--1--|--
G|-----0--0--0--0--|-----0--0--0--0--0--|-----0--0--0--0--|-----2-----2-----------|--
D|-----------------|--------------------|-----------------|-----------------------|--
A|--3--------------|--------------------|--0--------------|-----------------------|--
E|-----------------|--3-----------------|-----------------|--1--------------------|--



E|-----------------|--------------------|-----------------|-----------------------|--
B|-----1--1--3--3--|-----3--3--3--1--1--|-----1--1--3--3--|--------3-----3--1--1--|--
G|-----0--0--0--0--|-----0--0--0--0--0--|-----0--0--0--0--|-----2-----2-----------|--
D|-----------------|--------------------|-----------------|-----------------------|--
A|--3--------------|--------------------|--0--------------|-----------------------|--
E|-----------------|--3-----------------|-----------------|--1--------------------|--



E|--1--0--------------------|--------------------|--1--0--------------------|--
B|-----------1-----------3--|-----3--3--3--1--1--|-----------1-----3-----3--|--
G|--------0-----------0-----|-----0--0--0--0--0--|--------2-----------2-----|--
D|--------2--------2--------|--------------------|--------2-----------------|--
A|--3-----------3-----------|--------------------|--0-----------0-----------|--
E|--------------------------|--3-----------------|--------------------------|--



E|-----------------------|--1--0--------------------|--------------------|--
B|--------3-----3--1--1--|-----------1-----------3--|-----3--3--3--1--1--|--
G|-----2-----2-----------|--------0-----------0-----|-----0--0--0--0--0--|--
D|-----------------------|--------2--------2--------|--------------------|--
A|-----------------------|--3-----------3-----------|--------------------|--
E|--1--------------------|--------------------------|--3-----------------|--



E|--1--0--------------------|--------------------0--3--|--------------------0--3--|--
B|-----------1-----3-----3--|-----------1--1--3--------|-----------1--1--3--------|--
G|--------2-----------2-----|--------------------------|--------0-----------0-----|--
D|--------2-----------------|--------3-----------3-----|-----2-----------2--------|--
A|--0-----------0-----------|-----3-----------3--------|--3-----------3-----------|--
E|--------------------------|--1-----------1-----------|--------------------------|--



E|-----------------------|-----1--0-----------1--0--|-----------------------|--
B|-----------------1--1--|-----------1--------------|--1--------1--3-----1--|--
G|-----------0--0--------|--------2--------0--2-----|-----------------------|--
D|--------0-----------0--|-----2-----------2--0-----|--------3--------3-----|--
A|-----2-----------2-----|--0-----------0-----------|-----3--------3--------|--
E|--3-----------3--------|--------------------------|--1--------1-----------|--



E|--------------------0-----|--------------|-----------------------|--1--0--------------------|--
B|-----------------1--------|--3--------0--|--1--------------------|-----------1-----3-----3--|--
G|-----0--------0-----0-----|--------------|-----------------------|--------0-----------------|--
D|-----2-----2-----------2--|--------0-----|--------3-----3--2-----|--------2-----------2-----|--
A|--3-----3-----------------|--0--2--------|-----3-----3--------3--|--3-----------3-----------|--
E|--------------------------|--3-----------|--1--------------------|--------------------------|--



E|--------------------|-----1-----0--------------|-----------------------|--
B|-----3--3--3--1--1--|--------------1--3-----3--|--------3-----3--1--1--|--
G|-----0--0--0--0--0--|--------2-----------2-----|-----2-----2-----------|--
D|--------------------|--------2-----------2-----|-----------------------|--
A|--------------------|--0-----------0-----------|-----------------------|--
E|--3-----------------|--------------------------|--1--------------------|--



E|--1-----0-----------------|--------------------------|--------0-----------------|--
B|-----------1--------------|-----------------------1--|-----------1-----3-----3--|--
G|-----0-----------0-----0--|-----------0--------------|-----2--------------2-----|--
D|-----2--------------2-----|--------0-----------2-----|-----2--------------2-----|--
A|--3-----------3-----------|-----2-----------2--------|--0-----------0-----------|--
E|--------------------------|--3-----------3-----------|--------------------------|--



E|--------------------0--3--|--------------------0--3--|-----------------------1--|--
B|-----------1--1--3--------|-----------1--1--3--------|-----------------1--------|--
G|--------------------------|--------0-----------0-----|-----------0--0-----------|--
D|--------3-----------3-----|-----2-----------2--------|--------0-----------0-----|--
A|-----3-----------3--------|--3-----------3--0--------|-----2-----------2--------|--
E|--1-----------1-----------|--------------------------|--3-----------3-----------|--



E|-----0-----------------1--|--------------------0--|--3-----------------0--3--|--
B|-----------1--------1-----|--------1--1--1--3-----|-----------1--1--3--------|--
G|--------2--------0--------|-----------------------|--------0-----------0-----|--
D|-----2-----------2--------|--------3-----0--3-----|-----2-----------2--------|--
A|--0--0--------0-----------|-----3--------3--------|--3-----------3-----------|--
E|--------------------------|--1--------1-----------|--------------------------|--



E|-----------------------1--|-----0-----------------1--|-----------------------|--
B|-----------------1--------|-----------1--------1-----|-----------1-----1--3--|--
G|-----------0--0-----------|--------2--------0--------|-----------------------|--
D|--------0-----------0-----|-----2-----------2--------|--------3-----------3--|--
A|-----2-----------2--------|--0-----------0-----------|-----3-----------3-----|--
E|--3-----------3-----------|--------------------------|--1-----------1--------|--



E|--------------------0-----|--------------|-----------------------|--
B|--1--------------1--------|--3--------0--|--1--------------------|--
G|--------0-----0-----0-----|--------------|-----------------------|--
D|-----2-----2-----------2--|--------0-----|--------3-----3--2-----|--
A|--3-----3-----------------|-----2--------|-----3-----3--------3--|--
E|--------------------------|--3-----------|--1--------------------|--



E|--------------------------|-----0-----0--------0--|-----------5--7--0--------|--
B|--2--2-----0-----0-----1--|-----------------------|-----------------------3--|--
G|--------2-----------2-----|--------0--------0-----|--------7-----------------|--
D|--0-----------------2-----|--------2--------2-----|-----7--------------0-----|--
A|--------------0-----------|--3-----------3--------|--5-----------------------|--
E|--------------------------|-----------------------|--------------------------|--



E|--------------------------|--0-----1--0--------------|--------------------------|--
B|--------------------1--1--|-----------------1--------|-----------2--1--1-----1--|--
G|-----------0--------------|-----------------------0--|--------3-----------------|--
D|--------0-----------0-----|-----2--------------2-----|-----3--------------3-----|--
A|-----2-----------2--------|--3-----------3-----------|--1-----------------3-----|--
E|--3-----------3-----------|--------------------------|--------------1-----------|--



E|--------------------------|-----------------------|--1--0--------------------|--
B|--------------------------|--------------------0--|-----------1--------------|--
G|-----0--------------2--2--|--0--0-----------0-----|--------0-----------0--0--|--
D|--0--------0-----0--------|--------------0--------|--------2--------2--------|--
A|--------0-----0-----------|-----2-----2-----------|--3-----------3-----------|--
E|--------------------------|--3-----3--------------|--------------------------|--



E|--------------------|--1--0--------------------|-----------------------|--
B|--------------------|-----------1-----3-----3--|--------3-----3--1--1--|--
G|-----3--3--3--1--1--|--------2-----------2-----|-----2-----2-----------|--
D|-----0--0--0--0--0--|--------2-----------------|-----------------------|--
A|--------------------|--0-----------0-----------|-----------------------|--
E|--3-----------------|--------------------------|--1--------------------|--



E|--1--0--------------------|--------------------|--1--0--------------------|--
B|-----------1-----------3--|-----3--3--3--1--1--|-----------1-----3-----3--|--
G|--------0-----------0-----|-----0--0--0--0--0--|--------2-----------2-----|--
D|--------2--------2--------|--------------------|--------2-----------------|--
A|--3-----------3-----------|--------------------|--0-----------0-----------|--
E|--------------------------|--3-----------------|--------------------------|--



E|--------------------0--3--|--------------------0--3--|-----------------------|-----
B|-----------1--1--3--------|-----------1--1--3--------|-----------------1--1--|-----
G|--------------------------|--------0-----------0-----|-----------0--0--------|-----
D|--------3-----------3-----|-----2-----------2--------|--------0-----------0--|-----
A|-----3-----------3--------|--3-----------3-----------|-----2-----------2-----|-----
E|--1-----------1-----------|--------------------------|--3-----------3--------|-----



E|-----1--0-----------1--0--|--------------------0--3--|--------------------0--3--|--
B|-----------1--------------|--1--------1--1--3--------|-----------1--1--3--------|--
G|--------2--------0--2-----|--------------------------|--------0-----------0-----|--
D|-----2-----------2--------|--------3-----------3-----|-----2-----------2--------|--
A|--0-----------0-----------|-----3-----------3--------|--3-----------3-----------|--
E|--------------------------|--1-----------1-----------|--------------------------|--



E|-----------------------|--------0-----------1--0--|-----------------------|--
B|-----------------1--1--|-----1-----1--------------|--1--------1--3-----1--|--
G|-----------0--0--------|--------2--------0--2-----|-----------------------|--
D|--------0-----------0--|-----2-----------2--------|--------3--------3-----|--
A|-----2-----------2-----|--0--0--------0-----------|-----3--------3--------|--
E|--3-----------3--------|--------------------------|--1--------1-----------|--



E|--------------------0-----|--------------|-----------------------|-----|--
B|-----------------1--------|--3--------0--|--1--------------------|--1--|--
G|-----0--------0-----0-----|--------------|-----------------------|--0--|--
D|-----2-----2-----------2--|--------0-----|--------3-----3--2-----|--2--|--
A|--3-----3-----------------|-----2--------|-----3-----3--------3--|--3--|--
E|--------------------------|--3-----------|--1--------------------|-----|--
http://www.guitartabcreator.com
Guitar Tab Creator is intended to store guitar tab created through the tool. It currently does not support in-line text editing. Any text you place in here will be lost. If you need to comment on your tab, please use the "Tab Notes" section located below.