Please Please Me

(/) Slide Up  (\) Slide Down  (h) Hammer On  (p) Pull Off  (b) Bend (r) Release (v) Vibrato


G|-----|-------------------------------------------------|--------------------------------|--
D|-----|-------------------------------------------------|--------------------------------|--
A|-----|--7--7--7--7--7--7--7--7--7--7--7--7--7--7--7--2/|--7--7--7--7--7--7--7--7--7--7--|--
E|--7--|-------------------------------------------------|--------------------------------|--



G|-----------------------------|--------------------------|-----------------------------|--
D|-----------------------------|--7--7--7--7--------------|-----5--5--7--7--9--9--9--9--|--
A|--7--7--7--7--7--7--7--7--7--|--------------7--7--7--7--|--7--------------------------|--
E|-----------------------------|--------------------------|-----------------------------|--



G|--------9--9--------
D|--------------9--9--
A|--7--7--------------
E|--------------------



G|-----------------|-----------------|-----------------|--------------|--
D|--7--------7--6--|--4--------4--5--|--6--------6-----|--7--------7--|--
A|-----7--7--------|-----4--4--------|-----4--4-----4--|-----7--7-----|--
E|-----------------|-----------------|-----------------|--------------|--



G|--------------------------|--------------------------|--------------------------|--
D|--------------------------|--7--7--7--7--9--9--9--9--|-----------6--9--9--6-----|--
A|--7--7--7--7--7--7--7--7--|--------------------------|--7--7--7--------------7--|--
E|--------------------------|--------------------------|--------------------------|--



G|--------------------------
D|--7--7--6--7--9--9--------
A|--------------------7--7--
E|--------------------------



G|--------------|--------------|--------------------|--------------------
D|--7-----------|--9--7--6-----|--------6--9--6--9--|--------6--9--6-----
A|-----9--7-----|-----------9--|--7--7--------------|--7--7-----------7--
E|-----------9--|--------------|--------------------|--------------------



G|--------------|-----------------|--------------------|-----------9--9--9--
D|--7-----------|--9--9--7--6-----|--------6--9--6-----|--7--7--7-----------
A|-----9--7-----|--------------9--|--7--7-----------7--|--------------------
E|-----------9--|-----------------|--------------------|--------------------



G|--------------------|--------------
D|--------6--9--6-----|--7--6--9-----
A|--7--7-----------7--|-----------7--
E|--------------------|--------------
http://www.guitartabcreator.com
Guitar Tab Creator is intended to store guitar tab created through the tool. It currently does not support in-line text editing. Any text you place in here will be lost. If you need to comment on your tab, please use the "Tab Notes" section located below.