I Saw Her Standing There

(/) Slide Up  (\) Slide Down  (h) Hammer On  (p) Pull Off  (b) Bend (r) Release (v) Vibrato
G|--------------------------|--------------------------|--------------------------
D|--------6-----9-----7--6--|--------------------------|--------------------------
A|--7--7-----7-----7--------|--------4-----7-----5--4--|--------6-----9-----7--6--
E|--------------------------|--5--5-----5-----5--------|--7--7-----7-----7--------



G|--------------------------------------5--5--5--5--|--------|--------|--------
D|--------------6--6--6--6--7--7--7--7--------------|--------|--------|--------
A|--7--7--7--7--------------------------------------|--7--7--|--------|--7--7--
E|--------------------------------------------------|--------|--7--7--|--------



G|--------------|--------|--------|--------|--
D|--------------|--------|--------|--------|--
A|--7--5--4-----|--------|--------|--------|--
E|-----------7--|--5--5--|--7--7--|--5--5--|--
http://www.guitartabcreator.com
Guitar Tab Creator is intended to store guitar tab created through the tool. It currently does not support in-line text editing. Any text you place in here will be lost. If you need to comment on your tab, please use the "Tab Notes" section located below.