All My Loving

(/) Slide Up  (\) Slide Down  (h) Hammer On  (p) Pull Off  (b) Bend (r) Release (v) Vibrato


G|--------------|--------------|--------------|--------------
D|--4--2--1-----|--------------|--------------|--------------
A|-----------4--|--2--0--------|--------2-----|--4--4-----4--
E|--------------|--------4--2--|--0--4-----4--|--------4-----



G|--------------|--------------|--------------|--------------
D|-----------2--|--4--4-----4--|--0--0--0--0--|--------------
A|--0--0--4-----|--------4-----|--------------|--2--2--2--2--
E|--------------|--------------|--------------|--------------



G|--------------|--------------|--------------|--------------
D|--4--2--1-----|--------------|--------------|--------------
A|-----------4--|--2--0--------|--------2-----|--4--4-----4--
E|--------------|--------4--2--|--0--4-----4--|--------4-----



G|--------------|--------------|--------------|-----
D|-----------2--|--------4-----|--2-----------|-----
A|--0--0--4-----|--2--2-----2--|-----4--2-----|-----
E|--------------|--------------|-----------4--|--0--



G|--------------|--------------|--------------|--------------
D|--------------|--------------|--2--2--------|--2--2-----2--
A|--4--4--------|--3--3-----3--|--------2--2--|--------2-----
E|--------4--4--|--------4-----|--------------|--------------



G|--------------|--------------|-----------------|-----
D|--------------|--------------|--2--2-----------|-----
A|--4--4--------|--3--3-----3--|--------4--2-----|-----
E|--------4--4--|--------4-----|--------------4--|--0--



G|--------------|--2-----------|--------------|--------------
D|--------2--4--|-----4--2-----|--2-----------|--------------
A|--0--4--------|-----------4--|-----4--2-----|--------2--4--
E|--------------|--------------|-----------4--|--0--4--------



G|--------------|--------------|-----------------|-----
D|--4--2--1-----|--------------|--2--2-----------|-----
A|-----------4--|--2--0--------|--------4--2-----|-----
E|--------------|--------4--2--|--------------4--|--0--
http://www.guitartabcreator.com
Guitar Tab Creator is intended to store guitar tab created through the tool. It currently does not support in-line text editing. Any text you place in here will be lost. If you need to comment on your tab, please use the "Tab Notes" section located below.