She'll Be Comin' Round The Mountain

(/) Slide Up  (\) Slide Down  (h) Hammer On  (p) Pull Off  (b) Bend (r) Release (v) Vibrato


E|---------------------------------------------------------------------------------------------------
B|---------------------------------------------------0--0--0--0--3--0-----------------------3--1-----
G|--------0--0--0--0--------------0------------0--2--------------------2--0--2-----------------------
D|--0--2--------0-----2--0-----0-------0-------0-----------0-----------0----------0---------0--------
A|--------------------------2------------------------------------------------0---------0-------------
E|--------2-----------2-----------2---------2--------2-----------2-----------------------------------



E|--------------------------------------------------------------------------------------
B|--0--0--0--0--------------------------------------------------0-----------------------
G|--------------2--0--0--0--------------2--0--------------0--2-----2--------0-----------
D|--------0-----------0-----2--2--2--2--------4--2--0--0--0-----------2--4--------------
A|--------------------------3-----------3-----------------------0-----------------------
E|--2-----------2-----------------------------------2-----------------------2--------3--
http://www.guitartabcreator.com
Guitar Tab Creator is intended to store guitar tab created through the tool. It currently does not support in-line text editing. Any text you place in here will be lost. If you need to comment on your tab, please use the "Tab Notes" section located below.