Kiss The Rain

(/) Slide Up  (\) Slide Down  (h) Hammer On  (p) Pull Off  (b) Bend (r) Release (v) Vibrato

capo 1st fret

MAIN VERSE
E|---------|---------------------------|--------------------0-2-|
B|---------|----0--0-----------------0-|----3--3----------3-----|
G|----0--2-|-2-----------2-------0-2---|-2-----------2----------|
D|-0-------|----------0-----0----------|----------0-------------|
A|---------|---------------------------|-2----------------------|
E|---------|-3-----------------3-------|------------------------|

E|-2--3--3--------5--7-5-3--|-2-------------3--2----|----0--0-----------------|
B|----------0--3------------|----0--3--0----------3-|-3-----------0-------3-1-|
G|--------------------------|-----------------------|----------2-----2--------|
D|-2------------------------|-----------------------|-------------------------|
A|--------------------------|-2---------------------|-3-----------------------|
E|--------------------------|-----------------------|-------------------------|

E|----------------------|
B|-1--3--3--------------|
G|-0-----------0----0-2-|
D|----------0-----------|
A|-3--------------------|
E|----------------------|

FIRST ENDING
E|-------------------------|-------------------|
B|-0--1--1------------3--1-|-0--------0--------|
G|-0-----------0-----------|-0-----0-----2-----| back to main verse
D|----------2-----2--------|-0--0--------0-----|
A|-0-----------------------|-------------------|
E|-------------------------|-------------------|

SECOND ENDING
E|-----------------------|-----------------|
B|-0--1------------------|-----------------|
G|-0-----0-----0---------|-0-----------0---| go to chorus
D|----------2-------2----|----0-----0------|
A|-0---------------------|-------2---------|
E|-----------------------|-3---------------|

CHORUS
E|---------|-0------------------0-|-----------------------|
B|----0--3-|-------3--------------|-3--------3----------3-|
G|-0-------|----0-----0------0----|-------0----------0----|
D|---------|--------------4-------|----0----------4-------|
A|---------|-3--------------------|-2---------------------|
E|---------|----------------------|-----------------------|

E|-----------------------------------|-0-------------2--2--0-|
B|-3--1-1-0-0-------------------0--3-|-------3---------------|
G|-0----------2-2-0-2/4-4----0-------|----0-----0------------|
D|-----------------------------------|-----------------------|
A|-3---------------------------------|-3---------------------|
E|-----------------------------------|-----------------------|

E|----------------------|-------0--2-3--7--------7--5---|
B|-3--------0-1-3---1-0-|-1--3----------------0---------|
G|-------0--------------|-0----------------0------------| Back to main verse.
D|----0-----------------|---------------0-----------0---|
A|-2--------------------|-3-----------------------------|
E|----------------------|-------------------------------|

http://www.guitartabcreator.com
Guitar Tab Creator is intended to store guitar tab created through the tool. It currently does not support in-line text editing. Any text you place in here will be lost. If you need to comment on your tab, please use the "Tab Notes" section located below.