Forgotten

(/) Slide Up  (\) Slide Down  (h) Hammer On  (p) Pull Off  (b) Bend (r) Release (v) Vibrato
E|-------1-1---------2-1---------------------------------1-------2---1---------------------------------
B|-2---2-----1-----2-----1---1---------------------1-2-4---4-2-----4---1-1---1-----1-------------------
G|---3---------1-3---------1---1---0-1-------1-0---------------3-----------3---0-1-----1-3-1-3-0-0-1---
D|-------------------------------3-----3-1-3-----3-----------------------------------3-----------------
A|-----------------------------------------------------------------------------------------------------
E|-----------------------------------------------------------------------------------------------------



E|-----------------1-1-----------------1-1---------2-1-------------------------------------------------
B|-4-2-1---1-----------4-2-1-----2---2-----1-----2-----1---1---------------------2-1---1-2-4-1---1-----
G|-------3-----1-3-----------3-3---3---------1-3---------1---1---0-1-------1-0-------3---------3---1---
D|-----------3-------------------------------------------------3-----3-1-3-----3-----------------------
A|-----------------------------------------------------------------------------------------------------
E|-----------------------------------------------------------------------------------------------------



E|-----------------------------------------1-----0-3-4-1-4-6-9-6-5-----1-1---------2-1-----------------
B|-----------1-4-2-4-2-1-1-1---1-2-4-1---2---1-1---------------------2-----1-----2-----1---1-----------
G|-1-----0-1-----------------3---------3---------------------------3---------1-3---------1---1---0-1---
D|---4-3---------------------------------------------------------------------------------------3-------
A|-----------------------------------------------------------------------------------------------------
E|-----------------------------------------------------------------------------------------------------



E|--------------------
B|--------------------
G|-----------1--0-----
D|--3--1--3--------3--
A|--------------------
E|--------------------
http://www.guitartabcreator.com
Guitar Tab Creator is intended to store guitar tab created through the tool. It currently does not support in-line text editing. Any text you place in here will be lost. If you need to comment on your tab, please use the "Tab Notes" section located below.