Riff in Reptilia 2

(/) Slide Up  (\) Slide Down  (h) Hammer On  (p) Pull Off  (b) Bend (r) Release (v) Vibrato


E|--------------10--9----------9--------------10--9------12--9--
B|--12------10-------------10-----12------12---------10---------
G|------11-------------11-------------12------------------------
D|--------------------------------------------------------------
A|--------------------------------------------------------------
E|--------------------------------------------------------------



E|--------------10--9------12--9--9----------9--10----------9--
B|--12------12---------10---------------------------12---------
G|------12---------------------------11--12-------------11-----
D|-------------------------------------------------------------
A|-------------------------------------------------------------
E|-------------------------------------------------------------
http://www.guitartabcreator.com
Guitar Tab Creator is intended to store guitar tab created through the tool. It currently does not support in-line text editing. Any text you place in here will be lost. If you need to comment on your tab, please use the "Tab Notes" section located below.