rise and fall

(/) Slide Up  (\) Slide Down  (h) Hammer On  (p) Pull Off  (b) Bend (r) Release (v) Vibrato
E|-------------------------------------------------------------------------------
B|--------8----------8-------------7----------10p8------------8----------8-------
G|----------------------9-------8----------8--------------------------------9----
D|-----9----------9----------9----------9----------------7h9----------9----------
A|--7----------7--------------------------------------7------------7-------------
E|-------------------------------------------------------------------------------



E|---------------------------------------------------------------------------------
B|----------7----------10p8------------8----------8---------------7----------10p8--
G|-----7h8----------8--------------------------------9-------7h8----------8--------
D|--9------------9----------------7h9----------9----------9------------9-----------
A|-----------------------------7------------7--------------------------------------
E|---------------------------------------------------------------------------------



E|----------------------------------------------------------------x--x--x--x--x--
B|----------8----------8----------------7-----------10p8--7-------x--x--x--x--x--
G|------------------------9--------7h8-----------8-----------9----x--x--x--x--x--
D|-----7h9----------9----------10------------10-------------------x--x--x--x--x--
A|--7------------7------------------------------------------------x--x--x--x--x--
E|----------------------------------------------------------------x--x--x--x--x--



E|--7--7--7--7---7--3--3--3--3--3--
B|--8--8--7--10--8--4--4--3--6--4--
G|--7--9--8--8---7--3--5--4--4--3--
D|--9--9--9--9---9--5--5--5--5--5--
A|--7--7--7--7---7--3--3--3--3--3--
E|--7--7--7--7---7--3--3--3--3--3--
http://www.guitartabcreator.com
Guitar Tab Creator is intended to store guitar tab created through the tool. It currently does not support in-line text editing. Any text you place in here will be lost. If you need to comment on your tab, please use the "Tab Notes" section located below.