Solo I -1-

(/) Slide Up  (\) Slide Down  (h) Hammer On  (p) Pull Off  (b) Bend (r) Release (v) Vibrato


E|--10--13--12------10--15--12------
B|--------------13--------------13--
G|----------------------------------
D|----------------------------------
A|----------------------------------
E|----------------------------------



E|--10--13--12------10--15--12------
B|--------------13--------------13--
G|----------------------------------
D|----------------------------------
A|----------------------------------
E|----------------------------------
http://www.guitartabcreator.com
Guitar Tab Creator is intended to store guitar tab created through the tool. It currently does not support in-line text editing. Any text you place in here will be lost. If you need to comment on your tab, please use the "Tab Notes" section located below.