Jet Lag - Simple Plan

(/) Slide Up  (s) Slide Down  (h) Hammer On  (p) Pull Off  (b) Bend (r) Release (v) Vibrato


Intro

E|-----2--0-----2--0--------------------------------------------------|
B|--2--------2--------------------------------------------------------|
G|--------------------------------------------------------------------|
D|--------------------------------------------------------------------|


Verse

E|----------------------------------0-0-0-0-0-0-0-0-0-0-0-0-0-0-0-0---|
B|--2-2-2-2-2-2-2-2-2-2-2-2-2-2-2-2-----------------------------------|
G|--------------------------------------------------------------------|
D|--------------------------------------------------------------------|


E|----------------------------------0-0-0-0-0-0-0-0-0-0-0-0-0-0-0-0---|
B|--2-2-2-2-2-2-2-2-2-2-2-2-2-2-2-2-----------------------------------|
G|--------------------------------------------------------------------|
D|--------------------------------------------------------------------|


E|--4-4-4-4-4-4-4-4-4-4-4-4-4-4-4-4-0-0-0-0-0-0-0-0-0-0-0-0-0-0-0-0---|
B|--------------------------------------------------------------------|
G|--------------------------------------------------------------------|
D|--------------------------------------------------------------------|


E|--4-4-4-4-4-4-4-4-4-4-4-4-4-4-4-4-2-2-2-2-2-2-2-2-2-----------------|
B|--------------------------------------------------------------------|
G|--------------------------------------------------------------------|
D|--------------------------------------------------------------------|

Chorus

E|------------------0-0-0-0-0-0-0-0-4-4-4-4-4-4-4-4-2-2-2-2-2-2-2-2---|
B|--2-2-2-2-2-2-2-2---------------------------------------------------|
G|--------------------------------------------------------------------|
D|--------------------------------------------------------------------|


E|------------------0-0-0-0-0-0-0-0-4-4-4-4-4-4-4-4-2-2-2-2-2-2-2-2---|
B|--2-2-2-2-2-2-2-2---------------------------------------------------|
G|--------------------------------------------------------------------|
D|--------------------------------------------------------------------|


E|------0-0-0-0-0-4-4-2-2-2-2-2-----0-0-0-0-0-4-4-2-------------------|
B|--2-2-------------------------2-2-----------------------------------|
G|--------------------------------------------------------------------|
D|--------------------------------------------------------------------|


E|-----2--0-----------------------------------------------------------|
B|--2-----------------------------------------------------------------|
G|--------------------------------------------------------------------|
D|--------------------------------------------------------------------|


Verse

E|----------------------------------0-0-0-0-0-0-0-0-0-0-0-0-0-0-0-0---|
B|--2-2-2-2-2-2-2-2-2-2-2-2-2-2-2-2-----------------------------------|
G|--------------------------------------------------------------------|
D|--------------------------------------------------------------------|


E|----------------------------------0-0-0-0-0-0-0-0-0-0-0-0-0-0-0-0---|
B|--2-2-2-2-2-2-2-2-2-2-2-2-2-2-2-2-----------------------------------|
G|--------------------------------------------------------------------|
D|--------------------------------------------------------------------|


E|--4-4-4-4-4-4-4-4-4-4-4-4-4-4-4-4-0-0-0-0-0-0-0-0-0-0-0-0-0-0-0-0---|
B|--------------------------------------------------------------------|
G|--------------------------------------------------------------------|
D|--------------------------------------------------------------------|


E|--4-4-4-4-4-4-4-4-4-4-4-4-4-4-4-4-2-2-2-2-2-2-2-2-2-----------------|
B|--------------------------------------------------------------------|
G|--------------------------------------------------------------------|
D|--------------------------------------------------------------------|

Chorus

E|------------------0-0-0-0-0-0-0-0-4-4-4-4-4-4-4-4-2-2-2-2-2-2-2-2---|
B|--2-2-2-2-2-2-2-2---------------------------------------------------|
G|--------------------------------------------------------------------|
D|--------------------------------------------------------------------|


E|------------------0-0-0-0-0-0-0-0-4-4-4-4-4-4-4-4-2-2-2-2-2-2-2-2---|
B|--2-2-2-2-2-2-2-2---------------------------------------------------|
G|--------------------------------------------------------------------|
D|--------------------------------------------------------------------|


E|------0-0-0-0-0-4-4-2-2-2-2-2-----0-0-0-0-0-4-4-2-------------------|
B|--2-2-------------------------2-2-----------------------------------|
G|--------------------------------------------------------------------|
D|--------------------------------------------------------------------|

Interlude

E|--------------------------------------------------------------------|
B|--2--2s7--2--2s7--2-2s7--2--2s7-------------------------------------|
G|--------------------------------------------------------------------|
D|--------------------------------------------------------------------|

Chorus

E|-4-4-4-4-4-4-4-4-2-2-2-2-2-2-2-2------------------------------------|
B|--------------------------------------------------------------------|
G|--------------------------------------------------------------------|
D|--------------------------------------------------------------------|


E|------------------0-0-0-0-0-0-0-0-4-4-4-4-4-4-4-4-2-2-2-2-2-2-2-2---|
B|--2-2-2-2-2-2-2-2---------------------------------------------------|
G|--------------------------------------------------------------------|
D|--------------------------------------------------------------------|



E|------------------0-0-0-0-0-0-0-0-4-4-4-4-4-4-4-4-2-2-2-2-2-2-2-2---|
B|--2-2-2-2-2-2-2-2---------------------------------------------------|
G|--------------------------------------------------------------------|
D|--------------------------------------------------------------------|


E|------------------0-0-0-0-0-0-0-0-4-4-4-4-4-4-4-4-2-2-2-2-2-2-2-2---|
B|--2-2-2-2-2-2-2-2---------------------------------------------------|
G|--------------------------------------------------------------------|
D|--------------------------------------------------------------------|


E|------0-0-0-0-0-4-4-2-2-2-2-2-----0-0-0-0-0-4-4-2-------------------|
B|--2-2-------------------------2-2-----------------------------------|
G|--------------------------------------------------------------------|
D|--------------------------------------------------------------------|


E|------0-2---0-------------------------------------------------------|
B|--2-----------------------------------------------------------------|
G|--------------------------------------------------------------------|
D|--------------------------------------------------------------------|
Guitar Tab Creator is intended to store guitar tab created through the tool. It currently does not support in-line text editing. Any text you place in here will be lost. If you need to comment on your tab, please use the "Tab Notes" section located below.