Gives You Hell - Bass Tabs

(/) Slide Up  (\) Slide Down  (h) Hammer On  (p) Pull Off  (b) Bend (r) Release (v) Vibrato



Intro

E|--------------------
B|--------------------
G|--------------------
D|--2--2--2--2--2-----
A|--------------------
E|--------------------

I wake up every evening
With a big smile on my face
And it never feels out of place.
And you're still probably working
At a 9 to 5 pace
I wonder how bad that tastes


E|--------------------------------------------------
B|--------------------------------------------------
G|-----------------6--6--------------6--6-----------
D|--7--6-----------------7--7--------------7--7-----
A|--------9--7--7--------------7--7-----------------
E|--------------------------------------------------

When you see my face
I hope it gives you hell, I hope it gives you hell
When you walk my way
I hope it gives you hell, I hope it gives you hell



E|-----------
B|-----------
G|-----------
D|-----------
A|-----------
E|--5--4--2--

Now where's your picket fence love
And where's that shiny car

E|-----------------------------------------------------------|----------------------------
B|-----------------------------------------------------------|----------------------------
G|-----------------------------------------------------------|----------------------------
D|-----------------------------------------------------------|----------------------------
A|-----------4--4--4--0--0--------------------4--4--4--0--0--|----------4--4--4--0--0-----
E|--0--0--0-----------------5--4--2--0--0--0-----------------|-0--0--0--------------------

Did it ever get you far?
You never seem so tense, love
Never seen you fall so hard
Do you know where you are?

E|------------------------
B|------------------------
G|------------------------
D|------------------------
A|------------------------
E|--9\2--9--11--12--7--5--
Truth be told I miss you
Truth be told I'm lying


E|-----------------------------------------------------------------------------------
B|-----------------------------------------------------------------------------------
G|-----------------------------------------------------------------------------------
D|-----------------------------------------------------------------------------------
A|--------4--4--0--0--0--0--------4--4--0--0--0--0--------4--4--0--0--0--0-----------
E|--0--0--------------------0--0--------------------0--0--------------------0--0-----



E|-------------------------
B|-------------------------
G|-------------------------
D|-------------------------
A|--2--2--0--0--0--0-------
E|--------------------3b4--
When you see my face
I hope it gives you hell, I hope it gives you hell
When you walk my way
I hope it gives you hell, I hope it gives you hell
If you find a man thats worth the damn and treats you well
Then he's a fool you're just as well hope it gives you hell
Hope it gives you hell

During solo:
E|-----------------
B|-----------------
G|-----------------
D|--------6--------
A|--7--9-----9--7--
E|-----------------

End of solo


E|-----------------------------------------------------------------------------
B|-----------------------------------------------------------------------------
G|-----------------------------------------------------------------------------
D|-----------------------------------------------------------------------------
A|--------------4--4--4--4--0--0--0--0--0--0--0--0--------------4--4--4--4-----
E|--0--0--0--0--------------------------------------0--0--0--0-----------------



E|--------------------------
B|--------------------------
G|--------------------------
D|--------------------------
A|--0--0--0--0--0--0--0--0--
E|--------------------------
Tomorrow you'll be thinking to yourself
Where did it all go wrong?
But the list goes on and on


E|--------------------------------
B|--------------------------------
G|--------------------------------
D|--------------1--2--------------
A|--2--2--2--4--------2--2--2--0--
E|--------------------------------
Truth be told I miss you
Truth be told I'm lying


E|-----------------------------------------------------------------------------------
B|-----------------------------------------------------------------------------------
G|-----------------------------------------------------------------------------------
D|-----------------------------------------------------------------------------------
A|--------4--4--0--0--0--0--------4--4--0--0--0--0--------4--4--0--0--0--0-----------
E|--0--0--------------------0--0--------------------0--0--------------------0--0-----

E|-------------------------
B|-------------------------
G|-------------------------
D|-------------------------
A|--2--2--0--0--0--0--2----
E|-------------------------
When you see my face
I hope it gives you hell, I hope it gives you hell
When you walk my way
I hope it gives you hell, I hope it gives you hell
If you find a man that's worth the damn and treats you well
Then he's a fool you're just as well hope it gives you hell


E|--------------------------------
B|--------------------------------
G|--------------------------------
D|--------------------------------
A|--4--0--------------4--1-----2--
E|--------0--4--2--0--------2-----
Now you'll never see
What you've done to me
You can take back your memories
They're no good to me
And here's all your lies
If you look me in the eyes
With the sad, sad look
That you wear so well


E|-----------------------------------------
B|-----------------------------------------
G|-----------------------------------------
D|-----------------------------------------
A|-----------0--0--0--4--2--2--------------
E|--0--0--0--------------------0--0--0--0--



E|-----------------------------------------
B|-----------------------------------------
G|-----------------------------------------
D|-----------------------------------------
A|-----------0--0--0--4--2--2--------------
E|--0--0--0--------------------0--0--0--0--
When you see my face
I hope it gives you hell, I hope it gives you hell
When you walk my way
I hope it gives you hell, I hope it gives you hell
If you find a man that's worth the damn and treats you well
Then he's a fool you're just as well hope it gives you hell


E|-----------------------------------------------------
B|-----------------------------------------------------
G|-----------------------------------------------------
D|-----------------------------------------------------
A|--------------0--0--0--0--4--4--2--2-----------------
E|--0--0--0--0--------------------------0--0--0--0--0--

E|-----------------------------------------------------
B|-----------------------------------------------------
G|-----------------------------------------------------
D|-----------------------------------------------------
A|--------------0--0--0--0--4--4--2--2-----------------
E|--0--0--0--0--------------------------0--0--0--0--0--

When you see my face
I hope it gives you hell, I hope it gives you hell (hope it gives you hell)
When you walk my way
I hope it gives you hell, I hope it gives you hell (hope it gives you hell)
When you hear this song and you sing along well you'll never tell
And you're the fool I've just as well I hope it gives you hell


E|--------------------------------------------------
B|--------------------------------------------------
G|--------------------------------------------------
D|--------------------------------------------------
A|--4--4--2--2--------------4--4--4--4--2--2--2--2--
E|--------------0--0--0--0--------------------------
When you hear this song I hope that it will give you hell
You can sing along I hope that it puts you through hell
Guitar Tab Creator is intended to store guitar tab created through the tool. It currently does not support in-line text editing. Any text you place in here will be lost. If you need to comment on your tab, please use the "Tab Notes" section located below.