emergency

(/) Slide Up  (\) Slide Down  (h) Hammer On  (p) Pull Off  (b) Bend (r) Release (v) Vibrato

Stave 1:

E|----------------------------------
B|----------------------------------
G|--15--15--15--15--15--15--15--14--
D|--13--13--13--13--13--13--13--12--
A|----------------------------------
E|----------------------------------

Stave 2:

E|------------------
B|------------------
G|--15--17--19--21--
D|------------------
A|------------------
E|------------------

Stave 3:

E|------------------------------------------------------------------
B|------------------------------------------------------------------
G|------12------12------12------12------12------12------12------12--
D|--14------14------14------14------14------14------14------14------
A|------------------------------------------------------------------
E|------------------------------------------------------------------

Stave 4:

E|------------------------------------------------------------------
B|------------------------------------------------------------------
G|------13------13------13------13------13------13------13------13--
D|--15------15------15------15------15------15------15------15------
A|------------------------------------------------------------------
E|------------------------------------------------------------------

Stave 5:

E|------------------------------------
B|------------------------------------
G|------9------9------9------9--9-----
D|--11-----11-----11-----11-----11\3--
A|------------------------------------
E|------------------------------------

http://www.guitartabcreator.com
Guitar Tab Creator is intended to store guitar tab created through the tool. It currently does not support in-line text editing. Any text you place in here will be lost. If you need to comment on your tab, please use the "Tab Notes" section located below.