Goodbye Misery - Black & Grey

(/) Slide Up  (\) Slide Down  (h) Hammer On  (p) Pull Off  (b) Bend (r) Release (v) Vibrato

E|--------------------------------------------------------------------------
B|--------------------------------------------------------------------------
G|-----------0-----------------0-----------------0-----------------0--------
D|-----5--------5--------4--------4--------5--------5--------4--------4-----
A|--7-----7--------7--5-----5--------5--3-----3--------3--3-----3--------3--
E|--------------------------------------------------------------------------



E|--------------------------------------------------------------------------
B|--------------------------------------------------------------------------
G|-----------0-----7-----------0--7--------------0-----5-----------0-----7--
D|-----5--------7--------4-----------7-----5--------5--------4--------7-----
A|--7-----7-----------5-----5-----------3-----3-----------3-----3-----------
E|--------------------------------------------------------------------------



E|--------------------------------------------------
B|--------------------------------------------------
G|--0--0--0--0--0--0--0--0--0--0--0--0--0--0--0--0--
D|--5--5--5--5--4--4--4--4--5--5--5--5--4--4--5--5--
A|--7--7--7--7--5--5--5--5--3--3--3--3--3--3--3--3--
E|--0-----------------------------------------------



E|--
B|--
G|--
D|--
A|--
E|--
http://www.guitartabcreator.com
Guitar Tab Creator is intended to store guitar tab created through the tool. It currently does not support in-line text editing. Any text you place in here will be lost. If you need to comment on your tab, please use the "Tab Notes" section located below.