Tim's Song

(/) Slide Up  (\) Slide Down  (h) Hammer On  (p) Pull Off  (b) Bend (r) Release (v) Vibrato

E|---------------------------------------|---------------------------------------|-
B|---------------------------------------|---------------------------------------|-
G|---------------------------------------|---------------------------------------|-
D|---------------------------------------|---------------------------------------|-
A|---------------------------------------|---------------------------------------|-
E|-12-0-0-12-0-0-13-0-0-10-0-0-12-0-13-0-|-12-0-0-12-0-0-16-0-0-10-0-0-12-0-13-0-|-



E|---------------------------|---------------------------|---
B|---------------------------|---------------------------|---
G|---------------------------|---------------------------|---
D|---------------------------|---------------------------|---
A|---------------------------|---------------------------|---
E|---1---4---1---4---1---4---|---1---4---1---4---1---4---|---



E|---------------------------------------|---------------------------------------|-
B|---------------------------------------|---------------------------------------|-
G|---------------------------------------|---------------------------------------|-
D|---------------------------------------|---------------------------------------|-
A|---------------------------------------|---------------------------------------|-
E|-12-0-0-12-0-0-13-0-0-10-0-0-12-0-13-0-|-12-0-0-12-0-0-16-0-0-10-0-0-12-0-13-0-|-



E|-----------|-----
B|-----------|-----
G|-----------|-----
D|-----0-----|-----
A|-----0-----|-----
E|-----0-----|-----



E|------------------------|------------------------|--
B|------------------------|------------------------|--
G|------------------------|------------------------|--
D|--0--4---------1--0--0--|--0--4---------3--3--6--|--
A|--0--4---------1--0--0--|--0--4---------3--3-----|--
E|--0--4--1h4p1--1--0--0--|--0--4--1h4p1--3--3-----|--
http://www.guitartabcreator.com
Guitar Tab Creator is intended to store guitar tab created through the tool. It currently does not support in-line text editing. Any text you place in here will be lost. If you need to comment on your tab, please use the "Tab Notes" section located below.