Pumped Up Kicks

(/) Slide Up  (\) Slide Down  (h) Hammer On  (p) Pull Off  (b) Bend (r) Release (v) Vibrato


E|--------------------------------------------------
B|--------------------------------------------------
G|--------------------------------------------------
D|------------------------1--1--1-------------------
A|-------------------1/3--------------1--1--1-------
E|--1--1--1/3--4--4----------------1-----------4/6--



E|--------------------------------------------------------
B|--------------------------------------------------------
G|--------------------------------------------------------
D|------------------------1--1--1/3\1---------------------
A|-------------------1/3---------------3--1--1--1/3\1-----
E|--1--1--1/3--4--4------------------------------------3--
http://www.guitartabcreator.com
Guitar Tab Creator is intended to store guitar tab created through the tool. It currently does not support in-line text editing. Any text you place in here will be lost. If you need to comment on your tab, please use the "Tab Notes" section located below.