How Great Thou Art

(/) Slide Up  (\) Slide Down  (h) Hammer On  (p) Pull Off  (b) Bend (r) Release (v) Vibrato


E|-----7--7--7--7------------------------------
B|-----------------9--7------------------7-----
G|--4--------------------9--13--9--9--9-----8--
D|--4--------------------9---------------------
A|--2--------------------7---------------------
E|---------------------------------------------



E|-----7--7--7--7-----------------------------
B|-----------------9--7-----------------7-----
G|--4--------------------9--9--9--9--9-----8--
D|--4--------------------9--9-----------------
A|--2--------------------7--7-----------------
E|--------------------------------------------



E|------------------------------------------------------
B|--------9--9--9--7----------------9--9--9--7----------
G|--4--9--------------8--4----6--9--------------8--4----
D|--4--9-----------------4----6--9-----------------4----
A|--2--7-----------------2----4--7-----------------2----
E|------------------------------------------------------



E|--7-------------------------------
B|----------------------------------
G|----------------------9-----------
D|-----2--9--4--9----9--9--9--4--9--
A|-----2--9--4--9----9--7--9--4--9--
E|-----0--7--2--7----7-----7--2--7--

http://www.guitartabcreator.com
Guitar Tab Creator is intended to store guitar tab created through the tool. It currently does not support in-line text editing. Any text you place in here will be lost. If you need to comment on your tab, please use the "Tab Notes" section located below.