Chord Journey: AKA A Fire Burns Brightly

(/) Slide Up  (\) Slide Down  (h) Hammer On  (p) Pull Off  (b) Bend (r) Release (v) Vibrato


E|--------------------------------------------------10--10--10--8-------------------
B|--9p9--9--9--8--7----8h10h12--8h10h12--8h10h12-------------------10----8/7--------
G|----------------------------------------------------------------------------7-----
D|----------------------------------------------------------------------------------
A|----------------------------------------------------------------------------------
E|----------------------------------------------------------------------------------



E|------10------10------10----------8-----8-----8--------3-----3-----3--------
B|----------10------10------10---------8-----8-----8--------3-----3-----3-----
G|----------------------------------------------------------------------------
D|--12--------------------------10--------------------5-----------------------
A|--12--------------------------10--------------------5-----------------------
E|--10--------------------------8---------------------3-----------------------



E|------10------10------10------
B|----------10------10------10--
G|------------------------------
D|--12--------------------------
A|--12--------------------------
E|--10--------------------------
http://www.guitartabcreator.com
Guitar Tab Creator is intended to store guitar tab created through the tool. It currently does not support in-line text editing. Any text you place in here will be lost. If you need to comment on your tab, please use the "Tab Notes" section located below.