Chord Journey 2

(/) Slide Up  (\) Slide Down  (h) Hammer On  (p) Pull Off  (b) Bend (r) Release (v) Vibrato


E|--10------10--------------8-----8-------------3-----3-------------10------10---------
B|------10------10-------------8-----8-------------3-----3--------------10------10-----
G|-------------------------------------------------------------------------------------
D|-------------------------------------------------------------------------------------
A|-------------------------------------------------------------------------------------
E|-------------------------------------------------------------------------------------



E|----------------------------------------------------------------------------------
B|-----8\7--------8\7--------------8\7--------8\7-----------------------------------
G|--7-------7--7-------7--------7-------5--7-------5--------7--5--------5--5--7-----
D|----------------------------------------------------------------------------------
A|----------------------------------------------------------------------------------
E|----------------------------------------------------------------------------------



E|----------------------------------------------------------------------------------------
B|--10--10--10--10--8--7----------------------------------------------1-------1-----1--3--
G|------------------------------12--11--12--11--12--11--12--11-------------2-----2--------
D|----------------------------------------------------------------------------------------
A|----------------------------------------------------------------------------------------
E|----------------------------------------------------------------------------------------



E|--2--------2--------0--------0--------3--------3--------2--------2--------2--
B|-----3--------3--------1--------1--------3--------3--------3--------3-----3--
G|--------2--------2--------2--------2--------0--------0--------2--------2--2--
D|-----------------------------------------------------------------------------
A|-----------------------------------------------------------------------------
E|-----------------------------------------------------------------------------
http://www.guitartabcreator.com
Guitar Tab Creator is intended to store guitar tab created through the tool. It currently does not support in-line text editing. Any text you place in here will be lost. If you need to comment on your tab, please use the "Tab Notes" section located below.