short

(/) Slide Up  (\) Slide Down  (h) Hammer On  (p) Pull Off  (b) Bend (r) Release (v) Vibrato


E|---------------------------------------------------------------------
B|---------------------------------------------------------------------
G|--10--10--10--10--6----10--10--10--10--7----11--11--11--11--8----10--
D|---------------------------------------------------------------------
A|---------------------------------------------------------------------
E|---------------------------------------------------------------------



E|---------------------------------------------------------
B|--3--1--6--3--8--1----3--1--6--3--8--1----3--1--6--3--8--
G|---------------------------------------------------------
D|---------------------------------------------------------
A|---------------------------------------------------------
E|---------------------------------------------------------



E|----9--1----------------------------------------------------
B|----8--2------------10----10--11--12----12--12--------------
G|----9--1----10--11------------------------------11------13--
D|----8-------------------------------------------------------
A|------------------------------------------------------------
E|------------------------------------------------------------
http://www.guitartabcreator.com
Guitar Tab Creator is intended to store guitar tab created through the tool. It currently does not support in-line text editing. Any text you place in here will be lost. If you need to comment on your tab, please use the "Tab Notes" section located below.