He is with us

(/) Slide Up  (\) Slide Down  (h) Hammer On  (p) Pull Off  (b) Bend (r) Release (v) Vibrato


E|-----------------------
B|-----8--5--3--1p0h1p0--
G|--5--------------------
D|-----------------------
A|-----------------------
E|-----------------------



E|-------------------
B|-----8--5--3--1p0--
G|--5----------------
D|-------------------
A|-------------------
E|-------------------



E|-----------------------------------------
B|-----8--5--3--1p0h1/5--------3--------5--
G|--5-----------------------0--------0-----
D|-----------------------3--------3--------
A|-----------------------------------------
E|-----------------------------------------
http://www.guitartabcreator.com
Guitar Tab Creator is intended to store guitar tab created through the tool. It currently does not support in-line text editing. Any text you place in here will be lost. If you need to comment on your tab, please use the "Tab Notes" section located below.