Cold Feet Lead Guitar

(/) Slide Up  (\) Slide Down  (h) Hammer On  (p) Pull Off  (b) Bend (r) Release (v) Vibrato


E|--------------------------------------------------------------------------------
B|----------------14------------------10------------------12----------12----------
G|------------14------14----------11------11----------14------14----------14------
D|--------12--------------12--12--------------12--14--------------16----------16--
A|--------------------------------------------------------------------------------
E|--------------------------------------------------------------------------------



E|-------------------------------------------------------
B|--------9----------------14----------------------------
G|-----------9-----------------14------------6--6--6-----
D|-----7---------------12-----------------7-----------7--
A|--9-----------9--14--------------14--5-----------------
E|-------------------------------------------------------



E|--17--17--17--------------16--16----------------------------------------------------------
B|--------------17--17--17----------14--14--14--14--12--12--12--------------15--15--15--15--
G|--------------------------------------------------------------13--13--13------------------
D|------------------------------------------------------------------------------------------
A|------------------------------------------------------------------------------------------
E|------------------------------------------------------------------------------------------



E|--17--17----------------------
B|------------------15--15--17--
G|----------14--14--------------
D|------------------------------
A|------------------------------
E|------------------------------



E|--17--17------------------
B|----------14--14--15--15--
G|--------------------------
D|--------------------------
A|--------------------------
E|--------------------------
http://www.guitartabcreator.com
Guitar Tab Creator is intended to store guitar tab created through the tool. It currently does not support in-line text editing. Any text you place in here will be lost. If you need to comment on your tab, please use the "Tab Notes" section located below.