Texas Flood 1

(/) Slide Up  (\) Slide Down  (h) Hammer On  (p) Pull Off  (b) Bend (r) Release (v) Vibrato

Stave 1:

E|--------------3--5------------3-----3------------------8--10-----8--8---15--15--15--15--
B|--------------3--5---------3--5--3--5------------------8--10-----8------15--15--15--15--
G|-----------3--4--5------------4-----3---------------8--9--10--8--9------15--15--15--15--
D|-----2--5-----------5------------------------7--10------------------10--14--14--14--14--
A|--5------------------------------------7/10---------------------------------------------
E|----------------------------------------------------------------------------------------

Stave 2:

E|--------3--------5--3--4--3-----3--6--6--3--------
B|-----3-----6--3--------------6--------------3-----
G|--5--------------------------------------------5--
D|--------------------------------------------------
A|--------------------------------------------------
E|--------------------------------------------------

Stave 3:

E|---------------------------
B|---------------------------
G|--3--------3--------3------
D|--------------5--5-----5v--
A|---------------------------
E|---------------------------

Stave 4:

E|--------------
B|--------------
G|--------------
D|-----------5--
A|-----------4--
E|--------------

http://www.guitartabcreator.com
Guitar Tab Creator is intended to store guitar tab created through the tool. It currently does not support in-line text editing. Any text you place in here will be lost. If you need to comment on your tab, please use the "Tab Notes" section located below.