Joy to the world - Casting Crows - (1/2 step flat, capo 1)

(/) Slide Up  (\) Slide Down  (h) Hammer On  (p) Pull Off  (b) Bend (r) Release (v) Vibrato


E|-------------------------------------------------------------------------------------------------
B|-------------------------------------------------------------------------------------------------
G|----------------------12--13--12--10--------------------------------------12--10--12--13--12-----
D|------10--12--13----------------------13--10------10--12--12--13--13-----------------------------
A|--13--------------13--------------------------13----------------------13-------------------------
E|-------------------------------------------------------------------------------------------------



E|------------------------------------------------------------------------------------------
B|------------------------------------------------------------------------------------------
G|--10----------------------------------------------------------------------10--------------
D|------13----------------------10--12--10--13--12--10----------12--13--12------13--12--10--
A|----------13--10----------10--------------------------13--13------------------------------
E|------------------13--11------------------------------------------------------------------



E|----------------------------------------------------------------------
B|----------------------------------------------------------------------
G|----------10------13--10------10--12--13--12--10----------------------
D|------13------13----------13----------------------13------------------
A|--13--------------------------------------------------13--10----------
E|--------------------------------------------------------------13--11--



E|--------------------------------------------------------------10--10-----
B|-------------------------------------------------------------------------
G|------10--10--10--10--10--10--10--12--10--12--12--10--10--12--10--10-----
D|--------------------------------------------------12--12--12-------------
A|--13--13--13--13--13--13--13--13--13--13------13-------------------------
E|-------------------------------------------------------------------------



E|--11--10--------------------------------------------------
B|----------13--11------------------------------------------
G|------------------13--12--10------------------------------
D|------------------------------13--12--10------------------
A|------------------------------------------13--11--10------
E|------------------------------------------------------13--
http://www.guitartabcreator.com
Guitar Tab Creator is intended to store guitar tab created through the tool. It currently does not support in-line text editing. Any text you place in here will be lost. If you need to comment on your tab, please use the "Tab Notes" section located below.