It came upon a midnight clear (solo)

[code]
(/) Slide Up (\) Slide Down (h) Hammer On (p) Pull Off (b) Bend (r) Release (v) Vibrato


E|-------------------------------------------------------------------------------------------------
B|-------------------------------------------------------------------------------------------------
G|--9--9------------------------9--7--------------------------12--------9-----7--------------------
D|-----------------6--7--9--10--------10--9--7--9--7------12------9h10-----9-----10--7------7------
A|--------7--7--9-------------------------------------10--------------------------------10-----10--
E|-------------------------------------------------------------------------------------------------



E|--------------------------------------------------------------------------
B|--------------------------------------------------------------------------
G|------------------------------------------------------------9--12h14--14--
D|------7--7--9h10p9--7--5-----7-----------------------10h12----------------
A|--10----------------------7-------5/7--10--7--10/12-----------------------
E|--------------------------------------------------------------------------
[/code]
[url]http://www.guitartabcreator.com[/url]
Guitar Tab Creator is intended to store guitar tab created through the tool. It currently does not support in-line text editing. Any text you place in here will be lost. If you need to comment on your tab, please use the "Tab Notes" section located below.