questions

(/) Slide Up  (\) Slide Down  (h) Hammer On  (p) Pull Off  (b) Bend (r) Release (v) Vibrato

verse

E|-----------1---
B|---1---1---1---
G|-------2---2---
D|---2---2---3---
A|---3-------3---
E|---3-------1---

chorus

E|-------1-----------
B|---1---1---1---1---
G|---2---2-----------
D|---2---3---2---2---
A|-------3---3---2---
E|-------1-----------

picked out at end of chorus

E|---------------3---1---1---
B|---1---1---1-------1---1---
G|-----------2-------2---1---
D|---2-------2-------3---3---
A|---3---2-------2---3---3---
E|---------------3---1---1---

bridge

E|-------1-----------
B|---1---1---1---1---
G|---2---2-----------
D|---2---3---2-------
A|-------3---3---2---
E|-------1---3---3---
http://www.guitartabcreator.com
Guitar Tab Creator is intended to store guitar tab created through the tool. It currently does not support in-line text editing. Any text you place in here will be lost. If you need to comment on your tab, please use the "Tab Notes" section located below.