november 4th

(/) Slide Up  (\) Slide Down  (h) Hammer On  (p) Pull Off  (b) Bend (r) Release (v) Vibrato

verse

E|-------------------
B|---5---8---7---8---
G|-------------------
D|-------------------
A|---3---7---5---7---
E|-------------------

chorus

E|-------------------------------
B|---3---3---3---7---7---8---7---
G|-------------------------------
D|-------------------------------
A|---2---3-------5---6---7---5---
E|-----------3-------------------

at end of chorus

E|-----------
B|---5---3---
G|-----------
D|-----------
A|---3---3---
E|-----------

build/ending

E|----------------------------
B|---5---7---8---12---7---8---
G|----------------------------
D|----------------------------
A|---3---5---7---10---5---7---
E|----------------------------
http://www.guitartabcreator.com
Guitar Tab Creator is intended to store guitar tab created through the tool. It currently does not support in-line text editing. Any text you place in here will be lost. If you need to comment on your tab, please use the "Tab Notes" section located below.