BAR ROOM NIGHTS capo on 2nd

(/) Slide Up  (\) Slide Down  (h) Hammer On  (p) Pull Off  (b) Bend (r) Release (v) Vibrato

intro and verses

E|--3--3--3--3--3--3-----------
B|--3--3--3--3--3--3--1--1-----
G|--------------------2--------
D|--2-----2--2-----2--2--2--2--
A|--3--2--2--3--2--2-----3--2--
E|-----3--------3--------------

chorus

E|--------------------------3--3--3-----------
B|--1--3-----1--3-----1--3--3--3--3--3--1--3--
G|--------------------------------------------
D|--2--4--2--2--4--2--2--4--------2--4--2--4--
A|--3--5--2--3--5--2--3--5--2-----2--5--3--5--
E|--3--5-----3--5-----3--5--3--2-----5--3--5--

bridge

E|-----------
B|--1-----3--
G|-----------
D|--2--2--4--
A|--3--2--5--
E|--3-----5--
http://www.guitartabcreator.com
Guitar Tab Creator is intended to store guitar tab created through the tool. It currently does not support in-line text editing. Any text you place in here will be lost. If you need to comment on your tab, please use the "Tab Notes" section located below.