Whom Shall I Fear By Chris Tomlin

(/) Slide Up  (\) Slide Down  (h) Hammer On  (p) Pull Off  (b) Bend (r) Release (v) Vibrato
E|----------------------5---------------------------------------
B|--------------------------------------------------------------
G|-------5-------7----------7-------------5-------7---4b--------
D|---5-------5------------------------5-------5-----------------
A|------------------------------------------------------7---5---
E|--------------------------------------------------------------



E|---------------------------------------------------------------3-----
B|--------------7-----8------------------------------------------------
G|--7-----7------------------4-----4-----4-----4-----5-----5-----------
D|-----5-----5-----5------------5-----5-----5-----5-----5-----5--------
A|---------------------------------------------------------------------
E|---------------------------------------------------------------------



E|----3----2--------3----------------------------5---------
B|----3----3--------3--------------------------------------
G|----x----x--------x---------5---------7-------------7----
D|----x----x--------x----5---------5-----------------------
A|----x----x--------x--------------------------------------
E|----x----x--------x--------------------------------------



E|---------------------------------------------------------------------------
B|-----------------------------------------------------8-----7-----8-----10--
G|--5----4----5----4----2----4----5----4----5\2--7--7-----7-----7-----7------
D|---------------------------------------------------------------------------
A|---------------------------------------------------------------------------
E|---------------------------------------------------------------------------



E|--3--2--3--3--2--3--3--3--3--2--3--
B|--3--3--3--3--3--3--3--3--3--3--3--
G|--0--2--0--0--2--0--0--0--0--2--0--
D|--2--0--0--2--0--0--2--0--0--0--0--
A|--2-----2--2-----2--2--3--2-----2--
E|--------3--------3--------3-----3--



E|--x--x--x--7--x--x--x--x--x---x--x-------x--------------------------------------
B|--8--8--7--8--7--8--8--8--10--8--10------8--8--8--8--8--8--10--10--10--8--------
G|--5--7--7--9--7--5--5--7--7---7--7-------7--------------------------------------
D|--5--5--7-----7--5--5--5--7---5--7-------5--------------------------------------
A|--7--5--0-----0--7--7--x--x---x--x-------x--------------------------------------
E|--x--x-----------x--x--x--------------------------------------------------------



E|-------------------------10---------------------------8-8-7-7-
B|-8-8-8-8-8-8-8-8-7-8-8-8----8-8-8-8-8-8-8-8-8-7-8-8-8---------
G|--------------------------------------------------------------
D|--------------------------------------------------------------
A|--------------------------------------------------------------
E|--------------------------------------------------------------



E|---------10-----10-------------------------------------------
B|-8-8-8-8----8-8----8-8-8-8-8-8-8-8-8-8-8-8-8-8-8-8-8-8-7-8-8-
G|-------------------------------------------------------------
D|-------------------------------------------------------------
A|-------------------------------------------------------------
E|-------------------------------------------------------------



E|--x--x--x------x------x--
B|--8--7--8------8------8--
G|--7--7--7------5------7--
D|--5--7--7------5------5--
A|--x--x--x------x------x--
E|-------------------------
http://www.guitartabcreator.com
Guitar Tab Creator is intended to store guitar tab created through the tool. It currently does not support in-line text editing. Any text you place in here will be lost. If you need to comment on your tab, please use the "Tab Notes" section located below.