This Is What You Do By Bethel Live

(/) Slide Up  (\) Slide Down  (h) Hammer On  (p) Pull Off  (b) Bend (r) Release (v) Vibrato
E|------------------------------------------------------------------------
B|------------------------------------------------------------------------
G|--------0-----------2p0--------------0-----------4p0--------------------
D|-----0-----0-----0----------0-----4-----4-----4----------4--------------
A|--2-----------3----------3-----5-----------5----------5-----------------
E|------------------------------------------------------------------------



E|---10---12---7--------10---7--------------10---12---7--------10---7---
B|-----------------10------------10-----------------------10------------
G|----------------------------------------------------------------------
D|----------------------------------------------------------------------
A|----------------------------------------------------------------------
E|----------------------------------------------------------------------



E|--------7---7--------7---10---12--------10---7--------
B|---10-----------10-----------------10------------10---
G|------------------------------------------------------
D|------------------------------------------------------
A|------------------------------------------------------
E|------------------------------------------------------



E|-------------------------------------------------------------------
B|---3---3---3---0---0---0---0---0---------------0---0---0---0---0---
G|-----------------------------------2---2---2-----------------------
D|-------------------------------------------------------------------
A|-------------------------------------------------------------------
E|-------------------------------------------------------------------



E|-------------------------------------------------------------------
B|---3---3---3---0---0---0-------------------0-----------0-----------
G|---------------------------2---0-------0-------------------0-------
D|-----------------------------------4-----------4---4-----------4---
A|-------------------------------------------------------------------
E|-------------------------------------------------------------------



E|-----------------------------------------------------------------
B|---3---3---3---0---0---0---0---0---------------0---0---0---3/5---
G|-----------------------------------2---2---2---------------------
D|-----------------------------------------------------------------
A|-----------------------------------------------------------------
E|-----------------------------------------------------------------



E|--------------------------------------------------
B|--3--3--3--0--0--0--------------0--------0--------
G|--------------------2--0-----0--------0-----0-----
D|--------------------------4--------4-----------4--
A|--------------------------------------------------
E|--------------------------------------------------



E|-----3-----2-----3-----5-----------
B|-----3-----3-----3-----3-----------
G|-----0-----2-----0-----0-----------
D|-----2-----0-----2-----4-----------
A|-----3-----------3-----5-----------
E|-----------------------------------



E|------------------------
B|-----------------12-----
G|-----5-----7-----12-----
D|-----5-----7-----12-----
A|-----3-----5-----10-----
E|------------------------
http://www.guitartabcreator.com
Guitar Tab Creator is intended to store guitar tab created through the tool. It currently does not support in-line text editing. Any text you place in here will be lost. If you need to comment on your tab, please use the "Tab Notes" section located below.