Stronger By Hillsong Chapel

(/) Slide Up  (\) Slide Down  (h) Hammer On  (p) Pull Off  (b) Bend (r) Release (v) Vibrato

Stave 1:

E|-------------9------10------9------9-------------------------9------10------
B|------9--10-----10------10-----10-----10--12--10------9--10-----10------10--
G|--11----------------------------------------------11------------------------
D|----------------------------------------------------------------------------
A|----------------------------------------------------------------------------
E|----------------------------------------------------------------------------

Stave 2:

E|--9------9-----------------9------9------
B|-----10-----10--12--10--9-----10-----10--
G|-----------------------------------------
D|-----------------------------------------
A|-----------------------------------------
E|-----------------------------------------

Stave 3:

E|--9------9------9------12------12------12------------9--9------9------10------10------10------
B|-----10-----10-----10------10------10------10--9h10--------10-----10------10------10------10--
G|----------------------------------------------------------------------------------------------
D|----------------------------------------------------------------------------------------------
A|----------------------------------------------------------------------------------------------
E|----------------------------------------------------------------------------------------------

Stave 4:

E|------------9------9------
B|--7--9--10-----10-----10--
G|--------------------------
D|--------------------------
A|--------------------------
E|--------------------------

http://www.guitartabcreator.com
Guitar Tab Creator is intended to store guitar tab created through the tool. It currently does not support in-line text editing. Any text you place in here will be lost. If you need to comment on your tab, please use the "Tab Notes" section located below.