Revelation song by Phillips Craig

(/) Slide Up  (\) Slide Down  (h) Hammer On  (p) Pull Off  (b) Bend (r) Release (v) Vibrato

Stave 1:

E|--9--------9------------12---------12-------------12----------12----------
B|-----7--------7-------------12---------12-------------12----------12------
G|--------6--------6--------------9----------9--------------11----------11--
D|--------------------------------------------------------------------------
A|--------------------------------------------------------------------------
E|--------------------------------------------------------------------------

Stave 2:

E|--11----------11--------------9--------9--------
B|------12----------12-------------7--------7-----
G|----------11----------11------------6--------6--
D|------------------------------------------------
A|------------------------------------------------
E|------------------------------------------------

Stave 3:

E|----------------------------------------------------------------------19------18------
B|----------9--7-----------9---------------9--7--7h9--------12--11----------19----------
G|--11------------------9-----8--------11---------------11------------------------------
D|------11--------------------------------------------------------------------------11--
A|--------------------------------------------------------------------------------------
E|--------------------------------------------------------------------------------------

Stave 4:

E|--------------------------
B|--------------------------
G|---------6------9------4--
D|--4------6------9------4--
A|--4------4------7------2--
E|--2-----------------------

Stave 5:

E|------------------------------------------------------------------------------------------
B|--11--11--11--11--11--11--11--11--12--12--12--12--12--12--12--12--16--16--16--16--16--16--
G|------------------------------------------------------------------------------------------
D|------------------------------------------------------------------------------------------
A|------------------------------------------------------------------------------------------
E|------------------------------------------------------------------------------------------

Stave 6:

E|------------------14----------14----------14----------14--------------
B|--12--12--12--12------12--12------12--12------12--12------12--12--11--
G|----------------------------------------------------------------------
D|----------------------------------------------------------------------
A|----------------------------------------------------------------------
E|----------------------------------------------------------------------

http://www.guitartabcreator.com
Guitar Tab Creator is intended to store guitar tab created through the tool. It currently does not support in-line text editing. Any text you place in here will be lost. If you need to comment on your tab, please use the "Tab Notes" section located below.