Ocean By Hillsong United

(/) Slide Up  (\) Slide Down  (h) Hammer On  (p) Pull Off  (b) Bend (r) Release (v) Vibrato


E|-----7-----7------14------14-----9-----9-----9---------10--
B|---------------------------------------------------10------
G|--7-----7-----14------14------9-----9-----9-----9----------
D|-----------------------------------------------------------
A|-----------------------------------------------------------
E|-----------------------------------------------------------



E|-----2--0--2--------2--0--2--------------2--0--2-----------2--0--2--------
B|--------------3--------------3--------------------3-----------------3-----
G|--4--------------4--------------4-----2-----------------2--------------2--
D|-----------------------------------0-----------------0--------------------
A|--------------------------------------------------------------------------
E|--------------------------------------------------------------------------



E|--------0--0--0-----------0--0--0-----------3--0--3-----------3--0--3-----
B|-----------------2-----------------0-----------------3-----------------3--
G|-----------------------------------------0-----------------0--------------
D|-----2-----------------2--------------------------------------------------
A|--0-----------------0-----------------------------------------------------
E|--------------------------------------3-----------------3-----------------



E|-------------------------------------------------------------------------------------
B|-------------------------------------------------------------------------------------
G|-----7-----7-----7--------9------11------11------11------12--------------------------
D|--9-----9-----9-----9/11-----12------12------12------12----------11------11------11--
A|-------------------------------------------------------------12------12------12------
E|-------------------------------------------------------------------------------------



E|--------------------------------------
B|--------------------------------------
G|--------------------------------------
D|------12------9------9------9------9--
A|--12------10-----10-----10-----10-----
E|--------------------------------------



E|-----3-----5-----------2-----3-----5-----------
B|-----3-----5-----5-----3-----3-----5-----5-----
G|-----4-----7-----6-----4-----4-----7-----6-----
D|-----5-----7-----7-----4-----5-----7-----7-----
A|-----5-----5-----0-----2-----5-----5-----0-----
E|-----3-----------------------3-----------------



E|-----14-----15-----17------------
B|-----15-----15-----15-----14-----
G|-----16-----16-----14-----14-----
D|--------------------------14-----
A|---------------------------------
E|---------------------------------



E|--17------17------17------17--15--14------14------14------14--15--17------17------
B|------15------15------15--------------15------15------15--------------15------15--
G|----------------------------------------------------------------------------------
D|----------------------------------------------------------------------------------
A|----------------------------------------------------------------------------------
E|----------------------------------------------------------------------------------



E|--17------17------------------------------------------
B|------15------15------15------15------15------15--17--
G|------------------18------18------18------18----------
D|------------------------------------------------------
A|------------------------------------------------------
E|------------------------------------------------------
http://www.guitartabcreator.com
Guitar Tab Creator is intended to store guitar tab created through the tool. It currently does not support in-line text editing. Any text you place in here will be lost. If you need to comment on your tab, please use the "Tab Notes" section located below.