From The Inside Out By Hillsong United

(/) Slide Up  (\) Slide Down  (h) Hammer On  (p) Pull Off  (b) Bend (r) Release (v) Vibrato


E|-----------------12----------12----------------------
B|---------13--------------13------13--15--13------13--
G|--12h14------14------12----------------------12------
D|-----------------------------------------------------
A|-----------------------------------------------------
E|-----------------------------------------------------



E|--------------------------------0-------------------------------------
B|--------1-----------0--------------1------------1---------------0-----
G|-----------0-----------0-----0---------------------0---------------0--
D|-----2--------------------3------------------2------------------------
A|--3--------------2------------------------3------------------2--------
E|--------------3-------------------------------------------3-----------



E|------------------------------------------------------
B|--------5--5--------6--6--------5--5------------3-----
G|-----5-----------5-----------5-------------4h5-----4--
D|--7-----------7-----------5-------------5-------------
A|------------------------------------------------------
E|------------------------------------------------------



E|--0------0------0------3------1--
B|--1------1------1------3------3--
G|--2------0------2------0------2--
D|--3------2------2------0------0--
A|--0------3------0------2------0--
E|-----------------------3---------



E|--12--------------------------
B|--13------13------13------12--
G|--14------10------12------12--
D|--0-------10------10------12--
A|------------------------------
E|------------------------------



E|--------------------12--13--12----------------------------------------------
B|--10------8-----10--13--13--13--13p10--12--10h12------13p12--10--10h12------
G|--10------10----10--------------------------------12--------------------10--
D|----------------------------------------------------------------------------
A|----------------------------------------------------------------------------
E|----------------------------------------------------------------------------



E|--------------------------8p5p0------12--10--12--15---------17------17------17--
B|-----10--------10--------------------13--13--13--17--17p15------15------15------
G|--9------9--7------7------------------------------------------------------------
D|----------------------9b--------------------------------------------------------
A|--------------------------------------------------------------------------------
E|--------------------------------------------------------------------------------



E|------17------17---------19--
B|--15------15------15/17------
G|-----------------------------
D|-----------------------------
A|-----------------------------
E|-----------------------------



E|-----------------
B|-----------------
G|--------5--------
D|--7--3--5--5--7--
A|--7--3--3--5--7--
E|--5--1-----3--5--
http://www.guitartabcreator.com
Guitar Tab Creator is intended to store guitar tab created through the tool. It currently does not support in-line text editing. Any text you place in here will be lost. If you need to comment on your tab, please use the "Tab Notes" section located below.