God Be Praised By New Life Worship

(/) Slide Up  (\) Slide Down  (h) Hammer On  (p) Pull Off  (b) Bend (r) Release (v) Vibrato

Stave 1:

E|------14----14----------14----18--14-----
B|--12------------14--12-------------------
G|-----------------------------------------
D|-----------------------------------------
A|-----------------------------------------
E|-----------------------------------------

Stave 2:

E|------19--18--14----------------19--18--14----------
B|--12--------------16--14----12--------------16--19--
G|----------------------------------------------------
D|----------------------------------------------------
A|----------------------------------------------------
E|----------------------------------------------------

Stave 3:

E|-----2--------------------19--18--14----------------19--18--14-----------------
B|-----2------3---------12--------------16--14----12--------------16--19\--------
G|--4--4------4--6---------------------------------------------------------------
D|--4--4---------8---------------------------------------------------------------
A|--2----------------------------------------------------------------------------
E|-------------------------------------------------------------------------------

Stave 4:

E|------------------------------------------------------------------------------------------------
B|------------------------------------------------------------------------------------------------
G|--------------11--11--11--11--------------------------------------------------------------------
D|--9--9--9--9------------------9--9--9--9--------------------------------------------------------
A|------------------------------------------------------------------------------------------------
E|------------------------------------------------------------------------------------------------

Stave 5:

E|----------------------------------------
B|----------------------------------------
G|--8--8--8--13--13--13--13--13--8--8--8--
D|----------------------------------------
A|----------------------------------------
E|----------------------------------------

Stave 6:

E|-----------------------------------------------------------------------------
B|-----------------------------------------------------------------------------
G|--6--6--6--11--11--11--11--11--4--4--4--9--9--9--9-----------11--11--11--11--
D|----------------------------------------------------9--9--9------------------
A|-----------------------------------------------------------------------------
E|-----------------------------------------------------------------------------

Stave 7:

E|-------------------------------------------------------------------------------------------------
B|--9--9--9--9--9--9--9--12--12----11--9--9--7--7--9-----------------------------------------------
G|-------------------------------------------------------------------------------------------------
D|-------------------------------------------------------------------------------------------------
A|-------------------------------------------------------------------------------------------------
E|-------------------------------------------------------------------------------------------------

Stave 8:

E|-----------------------
B|-----------------------
G|--9--4--9--4--6--4-----
D|--9--4--9--4--6--4-----
A|--7--2--7--2--4--2-----
E|-----------------------

http://www.guitartabcreator.com
Guitar Tab Creator is intended to store guitar tab created through the tool. It currently does not support in-line text editing. Any text you place in here will be lost. If you need to comment on your tab, please use the "Tab Notes" section located below.