Embers by Hillsong young and free

[code]
(/) Slide Up (\) Slide Down (h) Hammer On (p) Pull Off (b) Bend (r) Release (v) Vibrato


E|--------------------------------------------------------------
B|--9--9--9--9--11--11--11--11--12--12--12--12--11--11--16--16--
G|--------------------------------------------------------------
D|--------------------------------------------------------------
A|--------------------------------------------------------------
E|--------------------------------------------------------------



E|--------------------------------------
B|-----9-------------12--11---------16--
G|-----------11-------------------------
D|--------------------------------------
A|--7-----9------11----------9--14------
E|--------------------------------------
[/code]
[url]http://www.guitartabcreator.com[/url]
Guitar Tab Creator is intended to store guitar tab created through the tool. It currently does not support in-line text editing. Any text you place in here will be lost. If you need to comment on your tab, please use the "Tab Notes" section located below.