Dry Bones By New Life worship

(/) Slide Up  (\) Slide Down  (h) Hammer On  (p) Pull Off  (b) Bend (r) Release (v) Vibrato

Stave 1:

E|--3----------2----------3----------7--------
B|-----3----------3----------3----------8-----
G|--------0----------2----------2----------7--
D|--------------------------------------------
A|--------------------------------------------
E|--------------------------------------------

Stave 2:

E|--10--12--7----10--12--------10--12--10--
B|-----------------------10----------------
G|-----------------------------------------
D|-----------------------------------------
A|-----------------------------------------
E|-----------------------------------------

Stave 3:

E|----------------------------------------------------------------------
B|--8--10--8--13--12--10--8--7--8--5--3----13--12--10--8----7h8p--------
G|--------------------------------------------------------------7----7--
D|----------------------------------------------------------------------
A|----------------------------------------------------------------------
E|----------------------------------------------------------------------

Stave 4:

E|---------------------------------------------------------------
B|--13--12--10--8--3/5/7/8/10/12--12--12--12--12--12--12--12--8--
G|---------------------------------------------------------------
D|---------------------------------------------------------------
A|---------------------------------------------------------------
E|---------------------------------------------------------------

Stave 5:

E|----------------
B|--8--10--8--15--
G|----------------
D|----------------
A|----------------
E|----------------

http://www.guitartabcreator.com
Guitar Tab Creator is intended to store guitar tab created through the tool. It currently does not support in-line text editing. Any text you place in here will be lost. If you need to comment on your tab, please use the "Tab Notes" section located below.