Call On The Name By Vertical Church Band

(/) Slide Up  (\) Slide Down  (h) Hammer On  (p) Pull Off  (b) Bend (r) Release (v) Vibrato

Stave 1:

E|-----5-----2--------
B|-----------------5--
G|--2-----2-----2-----
D|--------------------
A|--------------------
E|--------------------

Stave 2:

E|-----5-----2---------------------------5-----2----------------------
B|-----------------5-------2-------2-----------------5-------2--------
G|--2-----2-----2-----2h4-----2h4-----2-----2-----2-----2h4-----2-----
D|-----------------------------------------------------------------4--
A|--------------------------------------------------------------------
E|--------------------------------------------------------------------

Stave 3:

E|-------------------------------0--------0---------------0----------0--------------0------
B|---------11------11------9--------9--------9-----10--------15---------15--14---------14--
G|-----10------10------10-----9--------9--------9------9---------14-------------14---------
D|--8--------------------------------------------------------------------------------------
A|-----------------------------------------------------------------------------------------
E|-----------------------------------------------------------------------------------------

Stave 4:

E|--------0--------0---------0------------9--------9----------------0--------------0------
B|--9-----------------10--------10--9--------9--------9-----14---------14--15---------15--
G|-----9--------9---------9------------9--------9--------9------14-------------14---------
D|-----------7----------------------------------------------------------------------------
A|----------------------------------------------------------------------------------------
E|----------------------------------------------------------------------------------------

Stave 5:

E|----------0-----------
B|--12---------12--9----
G|------14--------------
D|----------------------
A|----------------------
E|----------------------

Stave 6:

E|------------------------------
B|--10--12--14--15--9-----------
G|--9---9---14--14--9-----------
D|--7---9---14--14--9-----------
A|------------------------------
E|------------------------------

Stave 7:

E|---------------
B|--7--5--9--10--
G|---------------
D|--7--7--9--11--
A|---------------
E|---------------

http://www.guitartabcreator.com
Guitar Tab Creator is intended to store guitar tab created through the tool. It currently does not support in-line text editing. Any text you place in here will be lost. If you need to comment on your tab, please use the "Tab Notes" section located below.