Be Thou Exalted by New Life Worship

(/) Slide Up  (\) Slide Down  (h) Hammer On  (p) Pull Off  (b) Bend (r) Release (v) Vibrato
E|---12---11------------------------------
B|-------------12-------------------------
G|------------------9---11---------11p9---
D|----------------------------------------
A|----------------------------------------
E|----------------------------------------



E|-----------------12----------------------9-------------------12-----------------12---11---
B|---12-------12--------10---9--------12--------------12------------10---9------------------
G|--------9----------------------11---------------9--------9-----------------11-------------
D|------------------------------------------------------------------------------------------
A|------------------------------------------------------------------------------------------
E|------------------------------------------------------------------------------------------



E|-----------------12----------------------11--------------------12-------------11---12---
B|---12-------12--------10---9--------12-----------10-------10-------------12-------------
G|--------9----------------------11---------------------9-------------11------------------
D|----------------------------------------------------------------------------------------
A|----------------------------------------------------------------------------------------
E|----------------------------------------------------------------------------------------



E|-----------------12----------------11--------------------12-------------------------12---
B|---10-------10----------------12-----------12-------12--------12------10-------10--------
G|--------9----------------11---------------------9--------------------------9-------------
D|-----------------------------------------------------------------------------------------
A|-----------------------------------------------------------------------------------------
E|-----------------------------------------------------------------------------------------



E|-----------------12----------------11---
B|---12-------12----------------12--------
G|--------9----------------11-------------
D|----------------------------------------
A|----------------------------------------
E|----------------------------------------



E|------------------------------------
B|------------------------------------
G|----------9---------------13--11----
D|----9/11-----11----11/14------------
A|------------------------------------
E|------------------------------------



E|----5---------5---------------------------5---------
B|----5---------5---------------------------5---------
G|----2----6----2----4----4----6------------2---------
D|----2----6----2----2----4----6------------2---------
A|---------4---------2----2----4----------------------
E|----------------------------------------------------



E|--------------0--------------0----5----5---------------------------
B|----2--------------4---------0----5----5---------------------------
G|----2----4--------------4----4----2----2----4------------6----8----
D|----2----4-------------------2----2----2----4------------6----9----
A|----x----2-------------------x--------------2------------4----7----
E|-----------------------------4-------------------------------------
http://www.guitartabcreator.com
Guitar Tab Creator is intended to store guitar tab created through the tool. It currently does not support in-line text editing. Any text you place in here will be lost. If you need to comment on your tab, please use the "Tab Notes" section located below.