Always Been About You by Fellowship Creative

(/) Slide Up  (\) Slide Down  (h) Hammer On  (p) Pull Off  (b) Bend (r) Release (v) Vibrato

Stave 1:

E|--15/17--12------15/17------
B|------------------------13--
G|----------------------------
D|----------------------------
A|----------------------------
E|----------------------------

Stave 2:

E|----------------------------------------------------------------
B|----------------------------------------------------------------
G|--5--5--5------------2--5--7----2--5--9--7------2--5--7------9--
D|----------------------------------------------------------------
A|----------------------------------------------------------------
E|----------------------------------------------------------------

Stave 3:

E|--15/17--12--------15/17--12--15------15/17--12----------------
B|-------------15----------------------------------15--12----13--
G|---------------------------------------------------------------
D|---------------------------------------------------------------
A|---------------------------------------------------------------
E|---------------------------------------------------------------

http://www.guitartabcreator.com
Guitar Tab Creator is intended to store guitar tab created through the tool. It currently does not support in-line text editing. Any text you place in here will be lost. If you need to comment on your tab, please use the "Tab Notes" section located below.