Here Without You - 3 Doors Down

(/) Slide Up  (\) Slide Down  (h) Hammer On  (p) Pull Off  (b) Bend (r) Release (v) Vibrato
E|--------------------------------------------------------------------------------------
B|-----------1--------0--------0-----1--------------------------------------0--------0--
G|--------2-----2--------2--------2-----2-----------------2--------------0-----0--------
D|-----2-----------2--------2--------------2-----------3-----3--------0-----------0-----
A|--0-----------------------------------------0-----3-----------3-----------------------
E|-----------------------------------------------1-----------------3--------------------



E|-----------------------------------------------------------------------------------
B|-----------1--------0--------0-----1--------------------0--------1--------0-----1--
G|--------2-----2--------2--------2-----2--------------0-----0--------0--------0-----
D|-----2-----------2--------2--------------2--------0-----------0--------0-----------
A|--0-----------------------------------------0--------------------------------------
E|-----------------------------------------------3-----------------------------------



E|--
B|--
G|--
D|--
A|--
E|--
http://www.guitartabcreator.com
Guitar Tab Creator is intended to store guitar tab created through the tool. It currently does not support in-line text editing. Any text you place in here will be lost. If you need to comment on your tab, please use the "Tab Notes" section located below.