Blueberry Hill Live at the LA Forum 9.4.70 Tab

(/) Slide Up  (\) Slide Down  (h) Hammer On  (p) Pull Off  (b) Bend (r) Release (v) Vibrato
E|---------------------------------------------------------------------------------------------------
B|--2------------------------2-----------------------------------------------------------------------
G|--2------------------------2-----------------------------------------------------------------------
D|--2---------2--2--4--------2---------2--2--4-------------------------------------------------------
A|-------2/4-----------3--4-------2/4-----------3--4--2---------2--2--4--------2---------2--2--4-----
E|----------------------------------------------------0----2/4-----------3--4--0----2/4--------------



E|-------------------------------------------------------------------------------------------------
B|---------------------------------4---------------------------------------------------------------
G|---------------------------------4---------------------------------------------------------------
D|--------4---------4--4--6--------4---------4--4--6-----------------------------------------------
A|--------2----4/6-----------5--6-------4/6-----------5--6--------------------0--0--0--0-----------
E|--3--4----------------------------------------------------0--0--0--0--2--4--------------4--2--0--



E|------------------------------------------------------------------------------------------------
B|--2------------------------2--------------------------------------------------------------------
G|--2------------------------2--------------------------------------------------------------------
D|--2---------2--2--4--------2---------2--2--4----------------------------------------------------
A|-------2/4-----------3--4-------2/4-----------3--4--2---------2--2--4--------2---------2--2--4--
E|----------------------------------------------------0----2/4-----------3--4--0----2/4-----------



E|-------------------------------------------------------------------------------------------------
B|---------------------------------4---------------------------------------------------------------
G|---------------------------------4---------------------------------------------------------------
D|--------4---------4--4--6--------4---------4--4--6-----------------------------------------------
A|--------2----4/6-----------5--6-------4/6-----------5--6--------------------0--0--0--0-----------
E|--3--4----------------------------------------------------0--0--0--0--2--4--------------4--2--0--



E|-------------------------------------------------------------------------------------------------
B|--------------------------------7------7--7--7--7------7--7--7-----------------------------------
G|--------------------------------8------8--8--8--8------8--8--8-----------------------------------
D|--9----9--9--9--9------9--9--9--9------9--9--9--9------9--9--9--9------9--9--9--9----9--9--9--9--
A|--7----7--7--7--7------7--7--7----------------------------------7------7--7--7--7----7--7--7--7--
E|-------------------------------------------------------------------------------------------------



E|----------------------------------------------------------------------------------------------
B|---------------------------4------4--4--4--4------4--4--4----------------------------------4--
G|---------------------------x------x--x--x--x------x--x--x----------------------------------x--
D|--9--9--9--8------8--8--8--6------6--6--6--6------6--6--6--8------8--8--8--8------8--8--8--6--
A|--7--7--7--6------6--6--6--6------6--6--6--6------6--6--6--6------6--6--6--6------6--6--6--6--
E|----------------------------------------------------------------------------------------------



E|--------------------------------------------------------------------------------------------------
B|----4--4--4--4--4--4---------------2------------------------2-------------------------------------
G|----x--x--x--x--x--x---------------2------------------------2-------------------------------------
D|----6--6--6--6--6--6---------------2---------2--2--4--------2---------2--2--4---------------------
A|----6--6--6--6--6--6--0--1--2-----------2/4-----------3--4-------2/4-----------3--4--2------------
E|-------------------------------------------------------------------------------------0----2/4-----



E|--------------------------------------------------------------------------------------------------
B|-------------------------------------------------------------------4------------------------------
G|-------------------------------------------------------------------4------------------------------
D|------------------------------------------4---------4--4--6--------4---------4--4--6--------------
A|--2--2--4--------2---------2--2--4--------2----4/6-----------5--6-------4/6-----------5--6--------
E|-----------3--4--0----2/4-----------3--4----------------------------------------------------0--0--



E|-----------------------------------
B|-----------------------------------
G|-----------------------------------
D|-----------------------------------
A|--------------0--0--0--0-----------
E|--0--0--2--4--------------4--2--0--



E|--------------------------12---------------------------12--------------------------------------
B|------------------12--12------12b14------------10--10------12b14--12b14--12b14--12b14r12v------
G|----------13--13---------------------------11--------------------------------------------------
D|--14--14---------------------------------------------------------------------------------------
A|-----------------------------------------------------------------------------------------------
E|-----------------------------------------------------------------------------------------------



E|-------------------------------------------------------------------------
B|---------12-----12-----12-----12-----12-----12-----12--------------------
G|------9--11b13--11b13--11b13--11b13--11b13--11b13--11b13r11--9--------9--
D|--11--------------------------------------------------------------11-----
A|-------------------------------------------------------------------------
E|-------------------------------------------------------------------------



E|---------14--14--14---------14--14--14---------14--14--14---------14--14--14---------15--15--15--
B|--14b16--------------14b16--------------14b16--------------14b16--------------15b17--------------
G|-------------------------------------------------------------------------------------------------
D|-------------------------------------------------------------------------------------------------
A|-------------------------------------------------------------------------------------------------
E|-------------------------------------------------------------------------------------------------



E|---------15--15--15---------15--15--15---------15--15--15-------------------------------------
B|--15b17--------------15b17--------------15b17----------------15b17r15--12---------------------
G|---------------------------------------------------------------------------14--12------14b16--
D|-----------------------------------------------------------------------------------14---------
A|----------------------------------------------------------------------------------------------
E|----------------------------------------------------------------------------------------------



E|---------------------------------------------
B|--12h15p12-----------------------------------
G|------------14b16r14p12--14--12--------------
D|---------------------------------14--12--14--
A|---------------------------------------------
E|---------------------------------------------



E|-------------------------------------------------------------------------------------------------
B|--------------------------------7------7--7--7--7------7--7--7-----------------------------------
G|--------------------------------8------8--8--8--8------8--8--8-----------------------------------
D|--9----9--9--9--9------9--9--9--9------9--9--9--9------9--9--9--9------9--9--9--9----9--9--9--9--
A|--7----7--7--7--7------7--7--7----------------------------------7------7--7--7--7----7--7--7--7--
E|-------------------------------------------------------------------------------------------------



E|----------------------------------------------------------------------------------------------
B|---------------------------4------4--4--4--4------4--4--4----------------------------------4--
G|---------------------------x------x--x--x--x------x--x--x----------------------------------x--
D|--9--9--9--8------8--8--8--6------6--6--6--6------6--6--6--8------8--8--8--8------8--8--8--6--
A|--7--7--7--6------6--6--6--6------6--6--6--6------6--6--6--6------6--6--6--6------6--6--6--6--
E|----------------------------------------------------------------------------------------------



E|------------------------------------------------------------------------------------------------
B|----4--4--4--4--4--4---------------2----------------------2-------------------------------------
G|----x--x--x--x--x--x---------------2----------------------2-------------------------------------
D|----6--6--6--6--6--6---------------2-------2--2--4--------2---------2--2--4---------------------
A|----6--6--6--6--6--6--0--1--2---------2/4-----------3--4-------2/4-----------3--4--2------------
E|-----------------------------------------------------------------------------------0----2/4-----



E|----------------------------------------------------------------------
B|----------------------------------------------------------------------
G|----------------------------------------------------------------------
D|------------------------------------------4---------4--4--6--------4--
A|--2--2--4--------2---------2--2--4--------2----4/6-----------5--6--2--
E|-----------3--4--0----2/4-----------3--4------------------------------



E|-----4--------3--------2-----0--0-----------------------------------
B|--------------------------------0-----------------------------------
G|--4-----4--3-----3--2-----2-----1-----------------------------------
D|--------------------------------2-----------------------------------
A|--------------------------------2-----------------------------------
E|--------------------------------------------------------------------
http://www.guitartabcreator.com
Guitar Tab Creator is intended to store guitar tab created through the tool. It currently does not support in-line text editing. Any text you place in here will be lost. If you need to comment on your tab, please use the "Tab Notes" section located below.