Megane by Megurine Luka

(/) Slide Up  (\) Slide Down  (h) Hammer On  (p) Pull Off  (b) Bend (r) Release (v) Vibrato
E|--------------------------------
B|--------------------------------
G|--12--10--8--5----12--10--8--5--
D|--12--10--8--5----12--10--8--5--
A|--10--8---6--3----10--8---6--3--
E|--------------------------------



E|-----------------------------------------------------
B|-----------------------------------------------------
G|--12----12--10--12------12----8--10--10--15--15--12--
D|-----------------------------------------------------
A|--10----10--8---10------10----6--8---8---13--13--10--
E|-----------------------------------------------------



E|---------------------------------------------------------------------------------------
B|---------------------------------------------------------------------------------------
G|--8h10b10b----15-----------------------------------------------------------------------
D|------------------17--15--13---------13-------------13---------15----------13--15--17--
A|------------------------------13h15------15--13h15------13h15------13--15--------------
E|---------------------------------------------------------------------------------------
http://www.guitartabcreator.com
Guitar Tab Creator is intended to store guitar tab created through the tool. It currently does not support in-line text editing. Any text you place in here will be lost. If you need to comment on your tab, please use the "Tab Notes" section located below.