Blue Eyes Crying in the Rain

(/) Slide Up  (\) Slide Down  (h) Hammer On  (p) Pull Off  (b) Bend (r) Release (v) Vibrato
E|----------------------------------|-----7-----6-----5-----------------7-----7--|--
B|--------7r7\9--9b9--------9--9\5--|--9-----8-----7-----9--7v--9--10v-----9-----|--
G|-----9-----------------9----------|--------------------------------------------|--
D|--9-----------------9-------------|--------------------------------------------|--
A|----------------------------------|--------------------------------------------|--
E|----------------------------------|--------------------------------------------|--



E|------------------------------------------------------|---------------------------------|--------------------
B|----------5--7--7\9--9--9--9b9--------7--9--9b9\5--5--|----------5b7h9--9--7v--9--7--9--|--------------------
G|-------4---------------------------9------------------|-------4-------------------------|--------------------
D|--9\6---------------------------9---------------------|--9\6----------------------------|--------------------
A|------------------------------------------------------|---------------------------------|--------------------
E|------------------------------------------------------|---------------------------------|--------------------



E|----------------|-----------------------------------------|----
B|--7\9\7--5--5v--|--------4--------3-----------3-----------|----
G|----------------|-----2--------1-----------0--------------|----
D|----------------|--3--------2--------2-----------------2--|----
A|----------------|-----------------------1--------1--0-----|----
E|----------------|-----------------------------------------|----
http://www.guitartabcreator.com
Guitar Tab Creator is intended to store guitar tab created through the tool. It currently does not support in-line text editing. Any text you place in here will be lost. If you need to comment on your tab, please use the "Tab Notes" section located below.