Summertime

(/) Slide Up  (\) Slide Down  (h) Hammer On  (p) Pull Off  (b) Bend (r) Release (v) Vibrato


E|------------------------------------------------------------------------
B|------------------------------------------------------------------------
G|------------------------------------------------------------------------
D|--8--10------7--8--10--10------7--8----------------10--10------7--8-----
A|---------10----------------10--------10--9--8--------------10-----------
E|-----------------------------------------------11--------------------8--



E|-------------------------------------
B|-------------------------------------
G|-------------------------------------
D|--10--10------7--8--10--8------------
A|----------10---------------8--10-----
E|-------------------------------------



E|--------------------------------------------------------------------------------------
B|--------------------------------------------------------------------------------------
G|-------------------7--8---------------------------------------------------------------
D|---------------10---------------------------------------------------------------------
A|--10--9--8--8------------8--8--8--8--8--------------------8--10--11--11------8--9-----
E|----------------------------------------8--10--11--10--8-----------------11--------5--



E|---------------------------------------------------------------------------------------
B|---------------------------------------------------------------------------------------
G|---------------------------------------------------------------------------------------
D|---------------------------------------------------------------------------------------
A|--10--10------8--10--8--------------------8--9-----------------------------------------
E|----------10------------10--9--3--11--11--------1--1--1--3--3--3--4--4--4--6--1--6--8--



E|--
B|--
G|--
D|--
A|--
E|--
http://www.guitartabcreator.com
Guitar Tab Creator is intended to store guitar tab created through the tool. It currently does not support in-line text editing. Any text you place in here will be lost. If you need to comment on your tab, please use the "Tab Notes" section located below.